  0
SECTION
  2
HEADER
  9
$ACADVER
  1
AC1009
  9
$INSBASE
 10
0.0
 20
0.0
 30
0.0
  9
$EXTMIN
 10
0.0
 20
0.0
 30
0.0
  9
$EXTMAX
 10
34.0
 20
22.0
 30
0.0
  9
$LIMMIN
 10
0.0
 20
0.0
  9
$LIMMAX
 10
34.0
 20
22.0
  9
$ORTHOMODE
 70
     1
  9
$REGENMODE
 70
     0
  9
$FILLMODE
 70
     1
  9
$QTEXTMODE
 70
     0
  9
$MIRRTEXT
 70
     1
  9
$DRAGMODE
 70
     2
  9
$LTSCALE
 40
1.0
  9
$OSMODE
 70
     0
  9
$ATTMODE
 70
     1
  9
$TEXTSIZE
 40
0.125
  9
$TRACEWID
 40
0.05
  9
$TEXTSTYLE
  7
LEROY
  9
$CLAYER
  8
A1-BORDER-LABELS
  9
$CELTYPE
  6
BYLAYER
  9
$CECOLOR
 62
   256
  9
$DIMSCALE
 40
1.0
  9
$DIMASZ
 40
0.18
  9
$DIMEXO
 40
0.0625
  9
$DIMDLI
 40
0.38
  9
$DIMRND
 40
0.0
  9
$DIMDLE
 40
0.0
  9
$DIMEXE
 40
0.18
  9
$DIMTP
 40
0.0
  9
$DIMTM
 40
0.0
  9
$DIMTXT
 40
0.18
  9
$DIMCEN
 40
0.09
  9
$DIMTSZ
 40
0.0
  9
$DIMTOL
 70
     0
  9
$DIMLIM
 70
     0
  9
$DIMTIH
 70
     1
  9
$DIMTOH
 70
     1
  9
$DIMSE1
 70
     0
  9
$DIMSE2
 70
     0
  9
$DIMTAD
 70
     0
  9
$DIMZIN
 70
     0
  9
$DIMBLK
  1

  9
$DIMASO
 70
     1
  9
$DIMSHO
 70
     1
  9
$DIMPOST
  1

  9
$DIMAPOST
  1

  9
$DIMALT
 70
     0
  9
$DIMALTD
 70
     2
  9
$DIMALTF
 40
25.399999999999999
  9
$DIMLFAC
 40
4.0
  9
$DIMTOFL
 70
     0
  9
$DIMTVP
 40
0.0
  9
$DIMTIX
 70
     0
  9
$DIMSOXD
 70
     0
  9
$DIMSAH
 70
     0
  9
$DIMBLK1
  1

  9
$DIMBLK2
  1

  9
$DIMSTYLE
  2
STANDARD
  9
$DIMCLRD
 70
     0
  9
$DIMCLRE
 70
     0
  9
$DIMCLRT
 70
     0
  9
$DIMTFAC
 40
1.0
  9
$DIMGAP
 40
0.09
  9
$LUNITS
 70
     5
  9
$LUPREC
 70
     5
  9
$SKETCHINC
 40
0.1
  9
$FILLETRAD
 40
0.046875
  9
$AUNITS
 70
     0
  9
$AUPREC
 70
     0
  9
$MENU
  1
acad
  9
$ELEVATION
 40
0.0
  9
$PELEVATION
 40
0.0
  9
$THICKNESS
 40
0.0
  9
$LIMCHECK
 70
     0
  9
$BLIPMODE
 70
     0
  9
$CHAMFERA
 40
0.0
  9
$CHAMFERB
 40
0.0
  9
$SKPOLY
 70
     0
  9
$TDCREATE
 40
2449049.6681322912
  9
$TDUPDATE
 40
2451935.578327199
  9
$TDINDWG
 40
0.1195119213
  9
$TDUSRTIMER
 40
0.1195119213
  9
$USRTIMER
 70
     1
  9
$ANGBASE
 50
0.0
  9
$ANGDIR
 70
     0
  9
$PDMODE
 70
     0
  9
$PDSIZE
 40
0.0
  9
$PLINEWID
 40
0.0
  9
$COORDS
 70
     2
  9
$SPLFRAME
 70
     0
  9
$SPLINETYPE
 70
     6
  9
$SPLINESEGS
 70
     8
  9
$ATTDIA
 70
     0
  9
$ATTREQ
 70
     1
  9
$HANDLING
 70
 12289
  9
$HANDSEED
  5
7F3
  9
$SURFTAB1
 70
     6
  9
$SURFTAB2
 70
     6
  9
$SURFTYPE
 70
     6
  9
$SURFU
 70
     6
  9
$SURFV
 70
     6
  9
$UCSNAME
  2

  9
$UCSORG
 10
0.0
 20
0.0
 30
0.0
  9
$UCSXDIR
 10
1.0
 20
0.0
 30
0.0
  9
$UCSYDIR
 10
0.0
 20
1.0
 30
0.0
  9
$PUCSNAME
  2

  9
$PUCSORG
 10
0.0
 20
0.0
 30
0.0
  9
$PUCSXDIR
 10
1.0
 20
0.0
 30
0.0
  9
$PUCSYDIR
 10
0.0
 20
1.0
 30
0.0
  9
$USERI1
 70
     0
  9
$USERI2
 70
     0
  9
$USERI3
 70
     0
  9
$USERI4
 70
     0
  9
$USERI5
 70
     0
  9
$USERR1
 40
0.0
  9
$USERR2
 40
0.0
  9
$USERR3
 40
0.0
  9
$USERR4
 40
0.0
  9
$USERR5
 40
0.0
  9
$WORLDVIEW
 70
     1
  9
$SHADEDGE
 70
     3
  9
$SHADEDIF
 70
    70
  9
$TILEMODE
 70
     1
  9
$MAXACTVP
 70
    16
  9
$PLIMCHECK
 70
     0
  9
$PEXTMIN
 10
1.0000000000000000E+020
 20
1.0000000000000000E+020
 30
1.0000000000000000E+020
  9
$PEXTMAX
 10
-1.0000000000000000E+020
 20
-1.0000000000000000E+020
 30
-1.0000000000000000E+020
  9
$PLIMMIN
 10
0.0
 20
0.0
  9
$PLIMMAX
 10
12.0
 20
9.0
  9
$UNITMODE
 70
     0
  9
$VISRETAIN
 70
     0
  9
$PLINEGEN
 70
     0
  9
$PSLTSCALE
 70
     1
  0
ENDSEC
  0
SECTION
  2
TABLES
  0
TABLE
  2
VPORT
 70
     2
  0
VPORT
  2
*ACTIVE
 70
     0
 10
0.0
 20
0.0
 11
1.0
 21
1.0
 12
16.998703280028032
 22
10.99916094590049
 13
0.0
 23
0.0
 14
0.125
 24
0.125
 15
0.0
 25
0.0
 16
0.0
 26
0.0
 36
1.0
 17
0.0
 27
0.0
 37
0.0
 40
22.236571675888431
 41
1.787878787878787
 42
50.0
 43
0.0
 44
0.0
 50
0.0
 51
0.0
 71
     0
 72
   100
 73
     1
 74
     0
 75
     0
 76
     0
 77
     0
 78
     0
  0
ENDTAB
  0
TABLE
  2
LTYPE
 70
    49
  0
LTYPE
  2
CONTINUOUS
 70
     0
  3
Solid line
 72
    65
 73
     0
 40
0.0
  0
LTYPE
  2
CENTER
 70
     0
  3
____ _ ____ _ ____ _ ____ _ ____ _ ____ _ ____ 
 72
    65
 73
     4
 40
2.0
 49
1.25
 49
-0.25
 49
0.25
 49
-0.25
  0
LTYPE
  2
HIDDEN2
 70
     0
  3
_ _ _ _ _ _ _ _ _ _ _ _ _ _ _ _ _ _ _ _ _ _ _ _
 72
    65
 73
     2
 40
0.1875
 49
0.125
 49
-0.0625
  0
LTYPE
  2
PHANTOM2
 70
     0
  3
___ _ _ ___ _ _ ___ _ _ ___ _ _ ___ _ _ ___ _ _
 72
    65
 73
     6
 40
1.25
 49
0.625
 49
-0.125
 49
0.125
 49
-0.125
 49
0.125
 49
-0.125
  0
LTYPE
  2
BORDER
 70
     0
  3
__ __ . __ __ . __ __ . __ __ . __ __ . __ __ .
 72
    65
 73
     6
 40
1.75
 49
0.5
 49
-0.25
 49
0.5
 49
-0.25
 49
0.0
 49
-0.25
  0
LTYPE
  2
BORDER2
 70
     0
  3
__.__.__.__.__.__.__.__.__.__.__.__.__.__.__.__
 72
    65
 73
     6
 40
0.875
 49
0.25
 49
-0.125
 49
0.25
 49
-0.125
 49
0.0
 49
-0.125
  0
LTYPE
  2
BORDERX2
 70
     0
  3
____  ____  .  ____  ____  .  ____  ____  .  __
 72
    65
 73
     6
 40
3.5
 49
1.0
 49
-0.5
 49
1.0
 49
-0.5
 49
0.0
 49
-0.5
  0
LTYPE
  2
CENTER2
 70
     0
  3
___ _ ___ _ ___ _ ___ _ ___ _ ___ _ ___ _ ___ _
 72
    65
 73
     4
 40
1.125
 49
0.75
 49
-0.125
 49
0.125
 49
-0.125
  0
LTYPE
  2
CENTERX2
 70
     0
  3
________  __  ________  __  ________  __  _____
 72
    65
 73
     4
 40
4.0
 49
2.5
 49
-0.5
 49
0.5
 49
-0.5
  0
LTYPE
  2
DASHDOT
 70
     0
  3
__ . __ . __ . __ . __ . __ . __ . __ . __ . __
 72
    65
 73
     4
 40
1.0
 49
0.5
 49
-0.25
 49
0.0
 49
-0.25
  0
LTYPE
  2
DASHDOT2
 70
     0
  3
_._._._._._._._._._._._._._._._._._._._._._._._
 72
    65
 73
     4
 40
0.5
 49
0.25
 49
-0.125
 49
0.0
 49
-0.125
  0
LTYPE
  2
DASHDOTX2
 70
     0
  3
____  .  ____  .  ____  .  ____  .  ____  .  __
 72
    65
 73
     4
 40
2.0
 49
1.0
 49
-0.5
 49
0.0
 49
-0.5
  0
LTYPE
  2
DASHED
 70
     0
  3
__ __ __ __ __ __ __ __ __ __ __ __ __ __ __ __
 72
    65
 73
     2
 40
0.75
 49
0.5
 49
-0.25
  0
LTYPE
  2
DASHED2
 70
     0
  3
_ _ _ _ _ _ _ _ _ _ _ _ _ _ _ _ _ _ _ _ _ _ _ _
 72
    65
 73
     2
 40
0.375
 49
0.25
 49
-0.125
  0
LTYPE
  2
DASHEDX2
 70
     0
  3
____  ____  ____  ____  ____  ____  ____  ____ 
 72
    65
 73
     2
 40
1.5
 49
1.0
 49
-0.5
  0
LTYPE
  2
DIVIDE
 70
     0
  3
____ . . ____ . . ____ . . ____ . . ____ . . __
 72
    65
 73
     6
 40
1.25
 49
0.5
 49
-0.25
 49
0.0
 49
-0.25
 49
0.0
 49
-0.25
  0
LTYPE
  2
DIVIDE2
 70
     0
  3
__..__..__..__..__..__..__..__..__..__..__..__.
 72
    65
 73
     6
 40
0.625
 49
0.25
 49
-0.125
 49
0.0
 49
-0.125
 49
0.0
 49
-0.125
  0
LTYPE
  2
DIVIDEX2
 70
     0
  3
________  .  .  ________  .  .  ________  .  . 
 72
    65
 73
     6
 40
2.5
 49
1.0
 49
-0.5
 49
0.0
 49
-0.5
 49
0.0
 49
-0.5
  0
LTYPE
  2
DOT
 70
     0
  3
. . . . . . . . . . . . . . . . . . . . . . . .
 72
    65
 73
     2
 40
0.25
 49
0.0
 49
-0.25
  0
LTYPE
  2
DOT2
 70
     0
  3
...............................................
 72
    65
 73
     2
 40
0.125
 49
0.0
 49
-0.125
  0
LTYPE
  2
DOTX2
 70
     0
  3
.  .  .  .  .  .  .  .  .  .  .  .  .  .  .  . 
 72
    65
 73
     2
 40
0.5
 49
0.0
 49
-0.5
  0
LTYPE
  2
HIDDEN
 70
     0
  3
__ __ __ __ __ __ __ __ __ __ __ __ __ __ __ __
 72
    65
 73
     2
 40
0.375
 49
0.25
 49
-0.125
  0
LTYPE
  2
HIDDENX2
 70
     0
  3
____ ____ ____ ____ ____ ____ ____ ____ ____ __
 72
    65
 73
     2
 40
0.75
 49
0.5
 49
-0.25
  0
LTYPE
  2
PHANTOM
 70
     0
  3
______  __  __  ______  __  __  ______  __  __ 
 72
    65
 73
     6
 40
2.5
 49
1.25
 49
-0.25
 49
0.25
 49
-0.25
 49
0.25
 49
-0.25
  0
LTYPE
  2
PHANTOMX2
 70
     0
  3
____________    ____    ____    ____________   
 72
    65
 73
     6
 40
5.0
 49
2.5
 49
-0.5
 49
0.5
 49
-0.5
 49
0.5
 49
-0.5
  0
LTYPE
  2
MOHAWK$0$BORDER
 70
     0
  3
__ __ . __ __ . __ __ . __ __ . __ __ . __ __ .
 72
    65
 73
     6
 40
1.75
 49
0.5
 49
-0.25
 49
0.5
 49
-0.25
 49
0.0
 49
-0.25
  0
LTYPE
  2
MOHAWK$0$BORDER2
 70
     0
  3
__.__.__.__.__.__.__.__.__.__.__.__.__.__.__.__
 72
    65
 73
     6
 40
0.875
 49
0.25
 49
-0.125
 49
0.25
 49
-0.125
 49
0.0
 49
-0.125
  0
LTYPE
  2
MOHAWK$0$BORDERX2
 70
     0
  3
____  ____  .  ____  ____  .  ____  ____  .  __
 72
    65
 73
     6
 40
3.5
 49
1.0
 49
-0.5
 49
1.0
 49
-0.5
 49
0.0
 49
-0.5
  0
LTYPE
  2
MOHAWK$0$CENTER
 70
     0
  3
____ _ ____ _ ____ _ ____ _ ____ _ ____ _ ____ 
 72
    65
 73
     4
 40
2.0
 49
1.25
 49
-0.25
 49
0.25
 49
-0.25
  0
LTYPE
  2
MOHAWK$0$CENTER2
 70
     0
  3
___ _ ___ _ ___ _ ___ _ ___ _ ___ _ ___ _ ___ _
 72
    65
 73
     4
 40
1.125
 49
0.75
 49
-0.125
 49
0.125
 49
-0.125
  0
LTYPE
  2
MOHAWK$0$CENTERX2
 70
     0
  3
________  __  ________  __  ________  __  _____
 72
    65
 73
     4
 40
4.0
 49
2.5
 49
-0.5
 49
0.5
 49
-0.5
  0
LTYPE
  2
MOHAWK$0$DASHDOT
 70
     0
  3
__ . __ . __ . __ . __ . __ . __ . __ . __ . __
 72
    65
 73
     4
 40
1.0
 49
0.5
 49
-0.25
 49
0.0
 49
-0.25
  0
LTYPE
  2
MOHAWK$0$DASHDOT2
 70
     0
  3
_._._._._._._._._._._._._._._._._._._._._._._._
 72
    65
 73
     4
 40
0.5
 49
0.25
 49
-0.125
 49
0.0
 49
-0.125
  0
LTYPE
  2
MOHAWK$0$DASHDOTX2
 70
     0
  3
____  .  ____  .  ____  .  ____  .  ____  .  __
 72
    65
 73
     4
 40
2.0
 49
1.0
 49
-0.5
 49
0.0
 49
-0.5
  0
LTYPE
  2
MOHAWK$0$DASHED
 70
     0
  3
__ __ __ __ __ __ __ __ __ __ __ __ __ __ __ __
 72
    65
 73
     2
 40
0.75
 49
0.5
 49
-0.25
  0
LTYPE
  2
MOHAWK$0$DASHED2
 70
     0
  3
_ _ _ _ _ _ _ _ _ _ _ _ _ _ _ _ _ _ _ _ _ _ _ _
 72
    65
 73
     2
 40
0.375
 49
0.25
 49
-0.125
  0
LTYPE
  2
MOHAWK$0$DASHEDX2
 70
     0
  3
____  ____  ____  ____  ____  ____  ____  ____ 
 72
    65
 73
     2
 40
1.5
 49
1.0
 49
-0.5
  0
LTYPE
  2
MOHAWK$0$DIVIDE
 70
     0
  3
____ . . ____ . . ____ . . ____ . . ____ . . __
 72
    65
 73
     6
 40
1.25
 49
0.5
 49
-0.25
 49
0.0
 49
-0.25
 49
0.0
 49
-0.25
  0
LTYPE
  2
MOHAWK$0$DIVIDE2
 70
     0
  3
__..__..__..__..__..__..__..__..__..__..__..__.
 72
    65
 73
     6
 40
0.625
 49
0.25
 49
-0.125
 49
0.0
 49
-0.125
 49
0.0
 49
-0.125
  0
LTYPE
  2
MOHAWK$0$DIVIDEX2
 70
     0
  3
________  .  .  ________  .  .  ________  .  . 
 72
    65
 73
     6
 40
2.5
 49
1.0
 49
-0.5
 49
0.0
 49
-0.5
 49
0.0
 49
-0.5
  0
LTYPE
  2
MOHAWK$0$DOT
 70
     0
  3
. . . . . . . . . . . . . . . . . . . . . . . .
 72
    65
 73
     2
 40
0.25
 49
0.0
 49
-0.25
  0
LTYPE
  2
MOHAWK$0$DOT2
 70
     0
  3
...............................................
 72
    65
 73
     2
 40
0.125
 49
0.0
 49
-0.125
  0
LTYPE
  2
MOHAWK$0$DOTX2
 70
     0
  3
.  .  .  .  .  .  .  .  .  .  .  .  .  .  .  . 
 72
    65
 73
     2
 40
0.5
 49
0.0
 49
-0.5
  0
LTYPE
  2
MOHAWK$0$HIDDEN
 70
     0
  3
__ __ __ __ __ __ __ __ __ __ __ __ __ __ __ __
 72
    65
 73
     2
 40
0.375
 49
0.25
 49
-0.125
  0
LTYPE
  2
MOHAWK$0$HIDDEN2
 70
     0
  3
_ _ _ _ _ _ _ _ _ _ _ _ _ _ _ _ _ _ _ _ _ _ _ _
 72
    65
 73
     2
 40
0.1875
 49
0.125
 49
-0.0625
  0
LTYPE
  2
MOHAWK$0$HIDDENX2
 70
     0
  3
____ ____ ____ ____ ____ ____ ____ ____ ____ __
 72
    65
 73
     2
 40
0.75
 49
0.5
 49
-0.25
  0
LTYPE
  2
MOHAWK$0$PHANTOM
 70
     0
  3
______  __  __  ______  __  __  ______  __  __ 
 72
    65
 73
     6
 40
2.5
 49
1.25
 49
-0.25
 49
0.25
 49
-0.25
 49
0.25
 49
-0.25
  0
LTYPE
  2
MOHAWK$0$PHANTOM2
 70
     0
  3
___ _ _ ___ _ _ ___ _ _ ___ _ _ ___ _ _ ___ _ _
 72
    65
 73
     6
 40
1.25
 49
0.625
 49
-0.125
 49
0.125
 49
-0.125
 49
0.125
 49
-0.125
  0
LTYPE
  2
MOHAWK$0$PHANTOMX2
 70
     0
  3
____________    ____    ____    ____________   
 72
    65
 73
     6
 40
5.0
 49
2.5
 49
-0.5
 49
0.5
 49
-0.5
 49
0.5
 49
-0.5
  0
ENDTAB
  0
TABLE
  2
LAYER
 70
     9
  0
LAYER
  2
0
 70
     0
 62
     7
  6
CONTINUOUS
  0
LAYER
  2
A1-BORDER-LABELS
 70
     0
 62
     6
  6
CONTINUOUS
  0
LAYER
  2
A1-DIMENSIONS
 70
     0
 62
     1
  6
CONTINUOUS
  0
LAYER
  2
A-LINE-CENTER
 70
     0
 62
     5
  6
CENTER
  0
LAYER
  2
A-LINE-HIDDEN
 70
     0
 62
     3
  6
HIDDEN
  0
LAYER
  2
A1-NOTES
 70
     0
 62
     4
  6
CONTINUOUS
  0
LAYER
  2
A-LINE-OBJECT
 70
     0
 62
     7
  6
CONTINUOUS
  0
LAYER
  2
REV-E
 70
     0
 62
     6
  6
CONTINUOUS
  0
LAYER
  2
DS$0$ASHADE
 70
     0
 62
     7
  6
CONTINUOUS
  0
ENDTAB
  0
TABLE
  2
STYLE
 70
    13
  0
STYLE
  2
STANDARD
 70
     0
 40
0.0
 41
1.0
 50
0.0
 71
     0
 42
0.2
  3
txt
  4

  0
STYLE
  2
LEROY
 70
     0
 40
0.125
 41
1.0
 50
15.0
 71
     0
 42
0.125
  3
ROMAND
  4

  0
STYLE
  2
DS$0$STANDARD
 70
     0
 40
0.0
 41
1.0
 50
0.0
 71
     0
 42
0.125
  3
ROMANT
  4

  0
STYLE
  2
DS$0$ASHADE
 70
     0
 40
0.2
 41
1.0
 50
0.0
 71
     0
 42
0.125
  3
simplex
  4

  0
STYLE
  2
MOHAWK$0$STANDARD
 70
     0
 40
0.09375
 41
1.0
 50
0.0
 71
     0
 42
0.09375
  3
ROMANT
  4

  0
STYLE
  2
MOHAWK$0$LEROY
 70
     0
 40
0.125
 41
1.0
 50
15.0
 71
     0
 42
0.125
  3
ROMAND
  4

  0
STYLE
  2
MOHAWK$0$MOHAWK
 70
     0
 40
0.25
 41
1.0
 50
0.0
 71
     0
 42
0.25
  3
ROMANT
  4

  0
STYLE
  2
MOHAWK$0$STANDARD2
 70
     0
 40
0.25
 41
0.8
 50
0.0
 71
     0
 42
0.25
  3
SASB____.PFB
  4

  0
STYLE
  2
CONF$0$STANDARD
 70
     0
 40
0.0
 41
1.0
 50
0.0
 71
     0
 42
0.2
  3
txt
  4

  0
STYLE
  2
CONF$0$LEROY
 70
     0
 40
0.125
 41
1.0
 50
15.0
 71
     0
 42
0.125
  3
ROMAND
  4

  0
STYLE
  2
CONF$0$LEROY2
 70
     0
 40
0.011
 41
1.0
 50
0.0
 71
     0
 42
0.0625
  3
ROMAND
  4

  0
STYLE
  2
REV$0$STANDARD
 70
     0
 40
0.09375
 41
1.0
 50
0.0
 71
     0
 42
0.09375
  3
ROMANT
  4

  0
STYLE
  2
LABEL
 70
     0
 40
0.25
 41
1.0
 50
0.0
 71
     0
 42
0.25
  3
txt
  4

  0
ENDTAB
  0
TABLE
  2
VIEW
 70
     0
  0
ENDTAB
  0
TABLE
  2
UCS
 70
     0
  0
ENDTAB
  0
TABLE
  2
APPID
 70
     3
  0
APPID
  2
ACAD
 70
     0
  0
APPID
  2
AVE_RENDER
 70
     0
  0
APPID
  2
AVE_FINISH
 70
     0
  0
ENDTAB
  0
TABLE
  2
DIMSTYLE
 70
     5
  0
DIMSTYLE
  2
STANDARD
 70
     0
  3

  4

  5

  6

  7

 40
1.0
 41
0.18
 42
0.0625
 43
0.38
 44
0.18
 45
0.0
 46
0.0
 47
0.0
 48
0.0
140
0.18
141
0.09
142
0.0
143
25.399999999999999
144
1.0
145
0.0
146
1.0
147
0.09
 71
     0
 72
     0
 73
     1
 74
     1
 75
     0
 76
     0
 77
     0
 78
     0
170
     0
171
     2
172
     0
173
     0
174
     0
175
     0
176
     0
177
     0
178
     0
  0
DIMSTYLE
  2
DS$0$STANDARD
 70
     0
  3

  4

  5

  6

  7

 40
1.0
 41
0.18
 42
0.0625
 43
0.38
 44
0.18
 45
0.0
 46
0.0
 47
0.0
 48
0.0
140
0.18
141
0.09
142
0.0
143
25.399999999999999
144
1.0
145
0.0
146
1.0
147
0.09
 71
     0
 72
     0
 73
     1
 74
     1
 75
     0
 76
     0
 77
     0
 78
     0
170
     0
171
     2
172
     0
173
     0
174
     0
175
     0
176
     0
177
     0
178
     0
  0
DIMSTYLE
  2
MOHAWK$0$STANDARD
 70
     0
  3

  4

  5

  6

  7

 40
1.0
 41
0.18
 42
0.0625
 43
0.38
 44
0.18
 45
0.0
 46
0.0
 47
0.0
 48
0.0
140
0.18
141
0.09
142
0.0
143
25.399999999999999
144
1.0
145
0.0
146
1.0
147
0.09
 71
     0
 72
     0
 73
     1
 74
     1
 75
     0
 76
     0
 77
     0
 78
     0
170
     0
171
     2
172
     0
173
     0
174
     0
175
     0
176
     0
177
     0
178
     0
  0
DIMSTYLE
  2
CONF$0$STANDARD
 70
     0
  3

  4

  5

  6

  7

 40
1.0
 41
0.18
 42
0.0625
 43
0.38
 44
0.18
 45
0.0
 46
0.0
 47
0.0
 48
0.0
140
0.18
141
0.09
142
0.0
143
25.399999999999999
144
1.0
145
0.0
146
1.0
147
0.09
 71
     0
 72
     0
 73
     1
 74
     1
 75
     0
 76
     0
 77
     0
 78
     0
170
     0
171
     2
172
     0
173
     0
174
     0
175
     0
176
     0
177
     0
178
     0
  0
DIMSTYLE
  2
REV$0$STANDARD
 70
     0
  3

  4

  5

  6

  7

 40
1.0
 41
0.18
 42
0.0625
 43
0.38
 44
0.18
 45
0.0
 46
0.0
 47
0.0
 48
0.0
140
0.18
141
0.09
142
0.0
143
25.399999999999999
144
1.0
145
0.0
146
1.0
147
0.09
 71
     0
 72
     0
 73
     1
 74
     1
 75
     0
 76
     0
 77
     0
 78
     0
170
     0
171
     2
172
     0
173
     0
174
     0
175
     0
176
     0
177
     0
178
     0
  0
ENDTAB
  0
ENDSEC
  0
SECTION
  2
BLOCKS
  0
BLOCK
  8
0
  2
$MODEL_SPACE
 70
     0
 10
0.0
 20
0.0
 30
0.0
  3
$MODEL_SPACE
  1

  0
ENDBLK
  5
529
  8
0
  0
BLOCK
 67
     1
  8
0
  2
$PAPER_SPACE
 70
     0
 10
0.0
 20
0.0
 30
0.0
  3
$PAPER_SPACE
  1

  0
ENDBLK
  5
525
 67
     1
  8
0
  0
BLOCK
  8
0
  2
LAYERS
 70
     0
 10
0.0
 20
0.0
 30
0.0
  3
LAYERS
  1

  0
ENDBLK
  5
584
  8
0
  0
BLOCK
  8
0
 62
     7
  2
DS
 70
     0
 10
0.0
 20
0.0
 30
0.0
  3
DS
  1
DS
  0
POLYLINE
  5
587
  8
0
 66
     1
 10
0.0
 20
0.0
 30
0.0
 40
0.0625
 41
0.0625
  0
VERTEX
  5
795
  8
0
 10
0.5
 20
0.5
 30
0.0
  0
VERTEX
  5
796
  8
0
 10
33.5
 20
0.5
 30
0.0
  0
VERTEX
  5
797
  8
0
 10
33.5
 20
21.499999999999989
 30
0.0
  0
VERTEX
  5
798
  8
0
 10
0.5
 20
21.499999999999989
 30
0.0
  0
VERTEX
  5
799
  8
0
 10
0.5
 20
0.5
 30
0.0
  0
SEQEND
  5
79A
  8
0
  0
LINE
  5
58E
  8
0
 10
0.0
 20
0.5
 30
0.0
 11
0.0
 21
0.0
 31
0.0
  0
LINE
  5
58F
  8
0
 10
0.0
 20
0.0
 30
0.0
 11
0.5
 21
0.0
 31
0.0
  0
LINE
  5
590
  8
0
 10
33.5
 20
0.0
 30
0.0
 11
34.0
 21
0.0
 31
0.0
  0
LINE
  5
591
  8
0
 10
34.0
 20
0.0
 30
0.0
 11
34.0
 21
0.5
 31
0.0
  0
LINE
  5
592
  8
0
 10
33.5
 20
22.0
 30
0.0
 11
34.0
 21
22.0
 31
0.0
  0
LINE
  5
593
  8
0
 10
34.0
 20
22.0
 30
0.0
 11
34.0
 21
21.499999999999989
 31
0.0
  0
LINE
  5
594
  8
0
 10
0.5
 20
22.0
 30
0.0
 11
0.0
 21
22.0
 31
0.0
  0
LINE
  5
595
  8
0
 10
0.0
 20
22.0
 30
0.0
 11
0.0
 21
21.499999999999989
 31
0.0
  0
INSERT
  5
597
  8
0
  2
MOHAWK
 10
33.5
 20
0.5
 30
0.0
  0
INSERT
  5
599
  8
0
  2
CONF
 10
13.0
 20
1.0
 30
0.0
  0
INSERT
  5
59B
  8
0
  2
REV
 10
33.5
 20
21.499999999999989
 30
0.0
  0
TEXT
  5
59C
  8
0
 10
0.625
 20
0.625
 30
0.0
 40
0.25
  1
D
  7
DS$0$STANDARD
  0
TEXT
  5
59D
  8
0
 10
0.875
 20
0.625
 30
0.0
 40
0.125
  1
-SIZE
  7
DS$0$STANDARD
  0
INSERT
  5
59F
  8
DS$0$ASHADE
 62
     1
  2
DS$0$AVE_RENDER
 10
0.0
 20
0.0
 30
0.0
1001
AVE_RENDER
1002
{
1070
     2
1000
Pref
1070
    30
1070
    20
1070
     0
1070
     0
1000

1070
    10
1070
     0
1070
    30
1040
1.0
1070
     1
1040
0.3
1040
0.7
1040
0.0
1040
10.0
1010
-1.0
1020
-1.0
1030
-1.0
1040
0.3
1070
    49
1002
}
  0
INSERT
  5
5A0
  8
DS$0$ASHADE
 62
     3
  2
DS$0$AVE_RENDER
 10
0.0
 20
0.0
 30
0.0
1001
AVE_RENDER
1002
{
1070
     0
1000
Full Opt
1070
     0
1070
     1
1070
     1
1070
     1
1070
     0
1070
     0
1070
     0
1070
     1
1070
     1
1040
0.0001
1040
0.0001
1002
}
  0
INSERT
  5
5A1
  8
DS$0$ASHADE
 62
     4
  2
DS$0$AVE_RENDER
 10
0.0
 20
0.0
 30
0.0
1001
AVE_RENDER
1002
{
1070
     0
1000
Quick Opt
1070
     0
1070
     1
1070
     1
1070
     1
1070
     0
1070
     0
1070
     1
1002
}
  0
ENDBLK
  5
5A2
  8
0
 62
     7
  0
BLOCK
  8
0
  2
MOHAWK
 70
     0
 10
17.0
 20
3.0
 30
0.0
  3
MOHAWK
  1
MOHAWK
  0
POLYLINE
  5
5BC
  8
0
 66
     1
 10
0.0
 20
0.0
 30
0.0
 40
0.03125
 41
0.03125
  0
VERTEX
  5
79B
  8
0
 10
17.0
 20
3.0
 30
0.0
  0
VERTEX
  5
79C
  8
0
 10
17.0
 20
4.5
 30
0.0
  0
SEQEND
  5
79D
  8
0
  0
TEXT
  5
5C0
  8
0
 10
1.125
 20
4.3125
 30
0.0
 40
0.09375
  1
NOTES:
  7
MOHAWK$0$STANDARD
  0
TEXT
  5
5C1
  8
0
 10
1.5
 20
3.1875
 30
0.0
 40
0.09375
  1
E-70TI CODE 5.3 FLUX CORE WIRE ONLY.
  7
MOHAWK$0$STANDARD
  0
TEXT
  5
5C2
  8
0
 10
1.5
 20
3.375
 30
0.0
 40
0.09375
  1
SPECIFICATIONS TO E-70XX ELECTRODES OR
  7
MOHAWK$0$STANDARD
  0
TEXT
  5
5C3
  8
0
 10
1.25
 20
3.5625
 30
0.0
 40
0.09375
  1
3. WELDING MEDIUM SHALL CONFORM TO AWS
  7
MOHAWK$0$STANDARD
  0
TEXT
  5
5C4
  8
0
 10
12.75
 20
3.125
 30
0.0
 40
0.09375
  1
LB.
  7
MOHAWK$0$STANDARD
  0
TEXT
  5
5C5
  8
0
 10
1.25
 20
4.125
 30
0.0
 40
0.09375
  1
1. REMOVE ALL SHARP CORNERS & EDGES.
  7
MOHAWK$0$STANDARD
  0
POLYLINE
  5
5C6
  8
0
 66
     1
 10
0.0
 20
0.0
 30
0.0
 40
0.03125
 41
0.03125
  0
VERTEX
  5
79E
  8
0
 10
5.1875
 20
4.5
 30
0.0
  0
VERTEX
  5
79F
  8
0
 10
5.1875
 20
3.0
 30
0.0
  0
SEQEND
  5
7A0
  8
0
  0
POLYLINE
  5
5CA
  8
0
 66
     1
 10
0.0
 20
0.0
 30
0.0
 40
0.03125
 41
0.03125
  0
VERTEX
  5
7A1
  8
0
 10
1.0
 20
3.0
 30
0.0
  0
VERTEX
  5
7A2
  8
0
 10
1.0
 20
4.5
 30
0.0
  0
SEQEND
  5
7A3
  8
0
  0
TEXT
  5
5CE
  8
0
 10
6.4375
 20
3.625
 30
0.0
 40
0.09375
  1
%%P .005
  7
MOHAWK$0$STANDARD
  0
TEXT
  5
5CF
  8
0
 10
6.4375
 20
3.75
 30
0.0
 40
0.09375
  1
%%P .030
  7
MOHAWK$0$STANDARD
  0
TEXT
  5
5D0
  8
0
 10
6.4375
 20
4.0
 30
0.0
 40
0.09375
  1
%%P .030
  7
MOHAWK$0$STANDARD
  0
TEXT
  5
5D1
  8
0
 10
5.5
 20
3.625
 30
0.0
 40
0.09375
  1
0.XXX
  7
MOHAWK$0$STANDARD
  0
TEXT
  5
5D2
  8
0
 10
5.5
 20
3.75
 30
0.0
 40
0.09375
  1
0.XX
  7
MOHAWK$0$STANDARD
  0
TEXT
  5
5D3
  8
0
 10
5.375
 20
3.875
 30
0.0
 40
0.09375
  1
DECIMAL:
  7
MOHAWK$0$STANDARD
  0
TEXT
  5
5D4
  8
0
 10
5.375
 20
4.0
 30
0.0
 40
0.09375
  1
FRACTIONAL
  7
MOHAWK$0$STANDARD
  0
TEXT
  5
5D5
  8
0
 10
5.375
 20
4.125
 30
0.0
 40
0.09375
  1
ANGULAR
  7
MOHAWK$0$STANDARD
  0
TEXT
  5
5D6
  8
0
 10
5.375
 20
4.3125
 30
0.0
 40
0.09375
  1
TOLERANCES:
  7
MOHAWK$0$STANDARD
  0
POLYLINE
  5
5D7
  8
0
 66
     1
 10
0.0
 20
0.0
 30
0.0
 40
0.03125
 41
0.03125
  0
VERTEX
  5
7A4
  8
0
 10
8.875
 20
3.375
 30
0.0
  0
VERTEX
  5
7A5
  8
0
 10
8.875
 20
4.5
 30
0.0
  0
SEQEND
  5
7A6
  8
0
  0
POLYLINE
  5
5DB
  8
0
 66
     1
 10
0.0
 20
0.0
 30
0.0
 40
0.03125
 41
0.03125
  0
VERTEX
  5
7A7
  8
0
 10
7.125
 20
3.375
 30
0.0
  0
VERTEX
  5
7A8
  8
0
 10
10.625
 20
3.375
 30
0.0
  0
SEQEND
  5
7A9
  8
0
  0
LINE
  5
5DF
  8
0
 10
10.625
 20
4.125
 30
0.0
 11
7.125
 21
4.125
 31
0.0
  0
LINE
  5
5E0
  8
0
 10
7.125
 20
3.75
 30
0.0
 11
10.625
 21
3.75
 31
0.0
  0
LINE
  5
5E1
  8
0
 10
8.875
 20
3.5
 30
0.0
 11
8.875
 21
3.375
 31
0.0
  0
LINE
  5
5E2
  8
0
 10
7.125
 20
3.375
 30
0.0
 11
10.625
 21
3.375
 31
0.0
  0
TEXT
  5
5E3
  8
0
 10
8.2589285714285712
 20
3.125
 30
0.0
 40
0.09375
  1
NEXT ASSEMBLY
  7
MOHAWK$0$STANDARD
 72
     1
 11
8.875
 21
3.125
 31
0.0
  0
LINE
  5
5E4
  8
0
 10
8.875
 20
3.5
 30
0.0
 11
8.875
 21
4.5
 31
0.0
  0
POLYLINE
  5
5E5
  8
0
 66
     1
 10
0.0
 20
0.0
 30
0.0
 40
0.03125
 41
0.03125
  0
VERTEX
  5
7AA
  8
0
 10
17.0
 20
3.5
 30
0.0
  0
VERTEX
  5
7AB
  8
0
 10
10.625
 20
3.5
 30
0.0
  0
SEQEND
  5
7AC
  8
0
  0
POLYLINE
  5
5E9
  8
0
 66
     1
 10
0.0
 20
0.0
 30
0.0
 40
0.03125
 41
0.03125
  0
VERTEX
  5
7AD
  8
0
 10
17.0
 20
4.0
 30
0.0
  0
VERTEX
  5
7AE
  8
0
 10
10.625
 20
4.0
 30
0.0
  0
SEQEND
  5
7AF
  8
0
  0
POLYLINE
  5
5ED
  8
0
 66
     1
 10
0.0
 20
0.0
 30
0.0
 40
0.03125
 41
0.03125
  0
VERTEX
  5
7B0
  8
0
 10
7.125
 20
3.0
 30
0.0
  0
VERTEX
  5
7B1
  8
0
 10
7.125
 20
4.5
 30
0.0
  0
SEQEND
  5
7B2
  8
0
  0
POLYLINE
  5
5F1
  8
0
 66
     1
 10
0.0
 20
0.0
 30
0.0
 40
0.03125
 41
0.03125
  0
VERTEX
  5
7B3
  8
0
 10
16.57129570693872
 20
3.0818393075563471
 30
0.0
  0
VERTEX
  5
7B4
  8
0
 10
16.75879570693872
 20
3.3943393075563471
 30
0.0
  0
VERTEX
  5
7B5
  8
0
 10
16.94629570693872
 20
3.0818393075563471
 30
0.0
  0
VERTEX
  5
7B6
  8
0
 10
16.57129570693872
 20
3.0818393075563471
 30
0.0
  0
VERTEX
  5
7B7
  8
0
 10
16.75879570693872
 20
3.3943393075563471
 30
0.0
  0
SEQEND
  5
7B8
  8
0
  0
TEXT
  5
5F8
  8
0
 10
11.875
 20
3.3125
 30
0.0
 40
0.09375
  1
WEIGHT
  7
MOHAWK$0$STANDARD
  0
TEXT
  5
5F9
  8
0
 10
10.74999999999998
 20
3.3125
 30
0.0
 40
0.09375
  1
DATE
  7
MOHAWK$0$STANDARD
  0
TEXT
  5
5FA
  8
0
 10
11.875
 20
3.8125
 30
0.0
 40
0.09375
  1
APPROVED
  7
MOHAWK$0$STANDARD
  0
TEXT
  5
5FB
  8
0
 10
10.74999999999998
 20
3.8125
 30
0.0
 40
0.09375
  1
CHECKED
  7
MOHAWK$0$STANDARD
  0
TEXT
  5
5FC
  8
0
 10
10.74999999999998
 20
4.3125
 30
0.0
 40
0.09375
  1
SCALE
  7
MOHAWK$0$STANDARD
  0
TEXT
  5
5FD
  8
0
 10
11.875
 20
4.3125
 30
0.0
 40
0.09375
  1
DRAWN
  7
MOHAWK$0$STANDARD
  0
POLYLINE
  5
5FE
  8
0
 66
     1
 10
0.0
 20
0.0
 30
0.0
 40
0.03125
 41
0.03125
  0
VERTEX
  5
7B9
  8
0
 10
10.625
 20
3.0
 30
0.0
  0
VERTEX
  5
7BA
  8
0
 10
10.625
 20
4.5
 30
0.0
  0
SEQEND
  5
7BB
  8
0
  0
POLYLINE
  5
602
  8
0
 66
     1
 10
0.0
 20
0.0
 30
0.0
 40
0.03125
 41
0.03125
  0
VERTEX
  5
7BC
  8
0
 10
11.75
 20
3.0
 30
0.0
  0
VERTEX
  5
7BD
  8
0
 10
11.75
 20
4.5
 30
0.0
  0
SEQEND
  5
7BE
  8
0
  0
TEXT
  5
606
  8
0
 10
13.125
 20
3.8125
 30
0.0
 40
0.09375
  1
TITLE
  7
MOHAWK$0$STANDARD
  0
POLYLINE
  5
607
  8
0
 66
     1
 10
0.0
 20
0.0
 30
0.0
 40
0.03125
 41
0.03125
  0
VERTEX
  5
7BF
  8
0
 10
13.0
 20
3.0
 30
0.0
  0
VERTEX
  5
7C0
  8
0
 10
13.0
 20
4.5
 30
0.0
  0
SEQEND
  5
7C1
  8
0
  0
TEXT
  5
60B
  8
0
 10
14.875
 20
3.3125
 30
0.0
 40
0.09375
  1
DRAWING NUMBER
  7
MOHAWK$0$STANDARD
  0
TEXT
  5
60C
  8
0
 10
13.125
 20
3.3125
 30
0.0
 40
0.09375
  1
FROM
  7
MOHAWK$0$STANDARD
  0
POLYLINE
  5
60D
  8
0
 66
     1
 10
0.0
 20
0.0
 30
0.0
 40
0.03125
 41
0.03125
  0
VERTEX
  5
7C2
  8
0
 10
14.75
 20
3.0
 30
0.0
  0
VERTEX
  5
7C3
  8
0
 10
14.75
 20
3.5
 30
0.0
  0
SEQEND
  5
7C4
  8
0
  0
POLYLINE
  5
611
  8
0
 66
     1
 10
0.0
 20
0.0
 30
0.0
 40
0.03125
 41
0.03125
  0
VERTEX
  5
7C5
  8
0
 10
16.5
 20
3.0
 30
0.0
  0
VERTEX
  5
7C6
  8
0
 10
16.5
 20
3.5
 30
0.0
  0
SEQEND
  5
7C7
  8
0
  0
TEXT
  5
615
  8
0
 10
5.25
 20
3.3125
 30
0.0
 40
0.09375
  1
FILE NAME
  7
MOHAWK$0$STANDARD
  0
POLYLINE
  5
616
  8
0
 66
     1
 10
0.0
 20
0.0
 30
0.0
 40
0.03125
 41
0.03125
  0
VERTEX
  5
7C8
  8
0
 10
7.125
 20
3.5
 30
0.0
  0
VERTEX
  5
7C9
  8
0
 10
5.1875
 20
3.5
 30
0.0
  0
SEQEND
  5
7CA
  8
0
  0
POLYLINE
  5
61A
  8
0
 66
     1
 10
0.0
 20
0.0
 30
0.0
 40
0.03125
 41
0.03125
  0
VERTEX
  5
7CB
  8
0
 10
1.0
 20
4.5
 30
0.0
  0
VERTEX
  5
7CC
  8
0
 10
17.0
 20
4.5
 30
0.0
  0
SEQEND
  5
7CD
  8
0
  0
POLYLINE
  5
61E
  8
0
 66
     1
 10
0.0
 20
0.0
 30
0.0
 40
0.03125
 41
0.03125
  0
VERTEX
  5
7CE
  8
0
 10
17.0
 20
3.0
 30
0.0
  0
VERTEX
  5
7CF
  8
0
 10
1.0
 20
3.0
 30
0.0
  0
SEQEND
  5
7D0
  8
0
  0
TEXT
  5
622
  8
0
 10
6.4375
 20
4.125
 30
0.0
 40
0.09375
  1
%%P 1
  7
MOHAWK$0$STANDARD
  0
CIRCLE
  5
623
  8
0
 10
6.76960531996626
 20
4.1972447518704987
 30
0.0
 40
0.0244051144589954
  0
TEXT
  5
624
  8
0
 10
1.25
 20
3.9375
 30
0.0
 40
0.09375
  1
2. UNLESS OTHERWISE SPECIFIED, SURFACE
  7
MOHAWK$0$STANDARD
  0
TEXT
  5
625
  8
0
 10
1.5
 20
3.75
 30
0.0
 40
0.09375
  1
FINISH TO BE 125 RMS.
  7
MOHAWK$0$STANDARD
  0
TEXT
  5
626
  8
0
 10
13.125
 20
4.125
 30
0.0
 40
0.25
  1
MOHAWK RESOURCES LTD.
 41
0.7905009759271308
  7
MOHAWK$0$STANDARD2
 72
     5
 11
16.875
 21
4.125
 31
0.0
  0
ENDBLK
  5
627
  8
0
  0
BLOCK
  8
0
  2
CONF
 70
     0
 10
3.0
 20
3.0
 30
0.0
  3
CONF
  1
CONF
  0
LINE
  5
629
  8
0
 10
2.5
 20
4.0
 30
0.0
 11
7.5
 21
4.0
 31
0.0
  0
TEXT
  5
62A
  8
0
 10
2.637648809523808
 20
3.6875
 30
0.0
 40
0.15625
  1
NOTICE OF CONFIDENTIAL INFORMATION
 51
15.0
  7
CONF$0$LEROY
 72
     1
 11
5.0
 21
3.6875
 31
0.0
  0
LINE
  5
62B
  8
0
 10
2.65625
 20
3.609375
 30
0.0
 11
7.34375
 21
3.609375
 31
0.0
  0
TEXT
  5
62C
  8
0
 10
2.718363672171427
 20
3.267932681490751
 30
0.0
 40
0.078125
  1
INFORMATION CONTAINED HEREIN IS CONFIDENTIAL AND PROPERTY OF 
  7
CONF$0$LEROY2
  0
TEXT
  5
62D
  8
0
 10
2.718363672171427
 20
3.1414445862526561
 30
0.0
 40
0.078125
  1
MOHAWK RESOURCES LTD.. WHERE DRAWING IS FURNISHED TO OTHERS
  7
CONF$0$LEROY2
  0
TEXT
  5
62E
  8
0
 10
2.718363672171427
 20
3.014956491014559
 30
0.0
 40
0.078125
  1
IT SHALL BE USED SOLELY FOR PURPOSES OF INSPECTION, INSTALLATION,
  7
CONF$0$LEROY2
  0
TEXT
  5
62F
  8
0
 10
2.718363672171427
 20
2.888468395776465
 30
0.0
 40
0.078125
  1
OR MAINTENANCE. THE INFORMATION SHALL NOT BE USED OR DISCLOSED
  7
CONF$0$LEROY2
  0
TEXT
  5
630
  8
0
 10
2.718363672171427
 20
2.7619803005383701
 30
0.0
 40
0.078125
  1
BY THE RECIPIENT FOR ANY OTHER PURPOSES WHATSOEVER.
  7
CONF$0$LEROY2
  0
LINE
  5
631
  8
0
 10
2.5
 20
4.0
 30
0.0
 11
2.5
 21
2.5
 31
0.0
  0
LINE
  5
632
  8
0
 10
2.5
 20
2.5
 30
0.0
 11
7.5
 21
2.5
 31
0.0
  0
LINE
  5
633
  8
0
 10
7.5
 20
2.5
 30
0.0
 11
7.5
 21
4.0
 31
0.0
  0
ENDBLK
  5
634
  8
0
  0
BLOCK
  8
0
  2
REV
 70
     0
 10
11.0
 20
5.0
 30
0.0
  3
REV
  1
REV
  0
POLYLINE
  5
636
  8
0
 66
     1
 10
0.0
 20
0.0
 30
0.0
 40
0.03125
 41
0.03125
  0
VERTEX
  5
7D1
  8
0
 10
3.0625
 20
4.1875
 30
0.0
  0
VERTEX
  5
7D2
  8
0
 10
3.3125
 20
4.5625
 30
0.0
  0
VERTEX
  5
7D3
  8
0
 10
3.5625
 20
4.1875
 30
0.0
  0
VERTEX
  5
7D4
  8
0
 10
3.0625
 20
4.1875
 30
0.0
  0
VERTEX
  5
7D5
  8
0
 10
3.3125
 20
4.5625
 30
0.0
  0
SEQEND
  5
7D6
  8
0
  0
POLYLINE
  5
63D
  8
0
 66
     1
 10
0.0
 20
0.0
 30
0.0
 40
0.03125
 41
0.03125
  0
VERTEX
  5
7D7
  8
0
 10
2.875
 20
4.625
 30
0.0
  0
VERTEX
  5
7D8
  8
0
 10
11.0
 20
4.625
 30
0.0
  0
SEQEND
  5
7D9
  8
0
  0
POLYLINE
  5
641
  8
0
 66
     1
 10
0.0
 20
0.0
 30
0.0
 40
0.03125
 41
0.03125
  0
VERTEX
  5
7DA
  8
0
 10
2.875
 20
5.0
 30
0.0
  0
VERTEX
  5
7DB
  8
0
 10
11.0
 20
5.0
 30
0.0
  0
SEQEND
  5
7DC
  8
0
  0
TEXT
  5
645
  8
0
 10
5.6383928571428568
 20
4.75
 30
0.0
 40
0.09375
  1
DESCRIPTION
  7
REV$0$STANDARD
 72
     1
 11
6.125
 21
4.75
 31
0.0
  0
TEXT
  5
646
  8
0
 10
3.151785714285714
 20
4.75
 30
0.0
 40
0.09375
  1
REV.
  7
REV$0$STANDARD
 72
     1
 11
3.3125
 21
4.75
 31
0.0
  0
TEXT
  5
647
  8
0
 10
8.8794642857142865
 20
4.75
 30
0.0
 40
0.09375
  1
DATE
  7
REV$0$STANDARD
 72
     1
 11
9.0625
 21
4.75
 31
0.0
  0
TEXT
  5
648
  8
0
 10
9.7745535714285712
 20
4.75
 30
0.0
 40
0.09375
  1
BY
  7
REV$0$STANDARD
 72
     1
 11
9.875
 21
4.75
 31
0.0
  0
TEXT
  5
649
  8
0
 10
10.390625
 20
4.75
 30
0.0
 40
0.09375
  1
APP'D.
  7
REV$0$STANDARD
 72
     1
 11
10.625
 21
4.75
 31
0.0
  0
POLYLINE
  5
64A
  8
0
 66
     1
 10
0.0
 20
0.0
 30
0.0
 40
0.03125
 41
0.03125
  0
VERTEX
  5
7DD
  8
0
 10
2.875
 20
4.125
 30
0.0
  0
VERTEX
  5
7DE
  8
0
 10
2.875
 20
5.0
 30
0.0
  0
SEQEND
  5
7DF
  8
0
  0
POLYLINE
  5
64E
  8
0
 66
     1
 10
0.0
 20
0.0
 30
0.0
 40
0.03125
 41
0.03125
  0
VERTEX
  5
7E0
  8
0
 10
3.75
 20
4.125
 30
0.0
  0
VERTEX
  5
7E1
  8
0
 10
3.75
 20
5.0
 30
0.0
  0
SEQEND
  5
7E2
  8
0
  0
POLYLINE
  5
652
  8
0
 66
     1
 10
0.0
 20
0.0
 30
0.0
 40
0.03125
 41
0.03125
  0
VERTEX
  5
7E3
  8
0
 10
8.625
 20
5.0
 30
0.0
  0
VERTEX
  5
7E4
  8
0
 10
8.625
 20
4.125
 30
0.0
  0
SEQEND
  5
7E5
  8
0
  0
POLYLINE
  5
656
  8
0
 66
     1
 10
0.0
 20
0.0
 30
0.0
 40
0.03125
 41
0.03125
  0
VERTEX
  5
7E6
  8
0
 10
9.5
 20
4.125
 30
0.0
  0
VERTEX
  5
7E7
  8
0
 10
9.5
 20
5.0
 30
0.0
  0
SEQEND
  5
7E8
  8
0
  0
POLYLINE
  5
65A
  8
0
 66
     1
 10
0.0
 20
0.0
 30
0.0
 40
0.03125
 41
0.03125
  0
VERTEX
  5
7E9
  8
0
 10
10.25
 20
4.125
 30
0.0
  0
VERTEX
  5
7EA
  8
0
 10
10.25
 20
5.0
 30
0.0
  0
SEQEND
  5
7EB
  8
0
  0
POLYLINE
  5
65E
  8
0
 66
     1
 10
0.0
 20
0.0
 30
0.0
 40
0.03125
 41
0.03125
  0
VERTEX
  5
7EC
  8
0
 10
11.0
 20
4.125
 30
0.0
  0
VERTEX
  5
7ED
  8
0
 10
11.0
 20
5.0
 30
0.0
  0
SEQEND
  5
7EE
  8
0
  0
ENDBLK
  5
662
  8
0
  0
BLOCK
  8
DS$0$ASHADE
  2
DS$0$AVE_RENDER
 70
     0
 10
0.0
 20
0.0
 30
0.0
  3
DS$0$AVE_RENDER
  1
AVE_RENDER
  0
ENDBLK
  5
664
  8
0
  0
BLOCK
  8
0
  2
DTITLE
 70
     2
 10
0.0
 20
0.0
 30
0.0
  3
DTITLE
  1

  0
ATTDEF
  5
5A5
  8
A1-BORDER-LABELS
 10
-3.875
 20
0.625
 30
0.0
 40
0.125
  1

 51
15.0
  7
LEROY
  3
DRAWING TITLE
  2
DRAW-TITLE
 70
     4
  0
ATTDEF
  5
5A6
  8
A1-BORDER-LABELS
 10
-0.3125
 20
0.125
 30
0.0
 40
0.125
  1

 51
15.0
  7
LEROY
  3
REVISION
  2
R
 70
     4
  0
ATTDEF
  5
5A7
  8
A1-BORDER-LABELS
 10
-2.125
 20
0.125
 30
0.0
 40
0.125
  1
XXX-XXX-XXX
 51
15.0
  7
LEROY
  3
DRAWING NUMBER
  2
DRAW-NO.
 70
     4
  0
ATTDEF
  5
5A8
  8
A1-BORDER-LABELS
 10
-3.875
 20
0.125
 30
0.0
 40
0.125
  1

 51
15.0
  7
LEROY
  3
DRAWING FROM
  2
FROM
 70
     4
  0
ATTDEF
  5
5A9
  8
A1-BORDER-LABELS
 10
-11.625
 20
0.125
 30
0.0
 40
0.125
  1

 51
15.0
  7
LEROY
  3
FILE NAME
  2
FILE-NAME
 70
     4
  0
ATTDEF
  5
5AA
  8
A1-BORDER-LABELS
 10
-6.25
 20
1.125
 30
0.0
 40
0.125
  1
1=1
 51
15.0
  7
LEROY
  3
SCALE
  2
SCALE
 70
     4
  0
ATTDEF
  5
5AB
  8
A1-BORDER-LABELS
 10
-5.125
 20
0.125
 30
0.0
 40
0.125
  1

 51
15.0
  7
LEROY
  3
WEIGHT
  2
WEIGHT
 70
     4
  0
ATTDEF
  5
5AC
  8
A1-BORDER-LABELS
 10
-6.25
 20
0.125
 30
0.0
 40
0.125
  1

 51
15.0
  7
LEROY
  3
DATE
  2
DATE
 70
     4
  0
ATTDEF
  5
5AD
  8
A1-BORDER-LABELS
 10
-5.125
 20
1.125
 30
0.0
 40
0.125
  1

 51
15.0
  7
LEROY
  3
DRAWN BY
  2
DRAWN
 70
     4
  0
ENDBLK
  5
5AE
  8
0
  0
BLOCK
  8
0
  2
NASSY
 70
     2
 10
0.0
 20
0.0
 30
0.0
  3
NASSY
  1

  0
ATTDEF
  5
5B1
  8
A1-BORDER-LABELS
 10
-9.75
 20
0.5
 30
0.0
 40
0.125
  1
XXX-XXX-XXX
 51
15.0
  7
LEROY
  3
NEXT ASSEMBLY
  2
NEXT-ASSEMBLY
 70
     4
  0
ATTDEF
  5
5B2
  8
A1-BORDER-LABELS
 10
-8.0
 20
0.5
 30
0.0
 40
0.125
  1

 51
15.0
  7
LEROY
  3
NEXT ASSEMBLY
  2
NEXT-ASSEMBLY
 70
     4
  0
ATTDEF
  5
5B3
  8
A1-BORDER-LABELS
 10
-9.75
 20
0.875
 30
0.0
 40
0.125
  1

 51
15.0
  7
LEROY
  3
NEXT ASSEMBLY
  2
NEXT-ASSEMBLY
 70
     4
  0
ATTDEF
  5
5B4
  8
A1-BORDER-LABELS
 10
-8.0
 20
0.875
 30
0.0
 40
0.125
  1

 51
15.0
  7
LEROY
  3
NEXT ASSEMBLY
  2
NEXT-ASSEMBLY
 70
     4
  0
ATTDEF
  5
5B5
  8
A1-BORDER-LABELS
 10
-9.75
 20
1.25
 30
0.0
 40
0.125
  1

 51
15.0
  7
LEROY
  3
NEXT ASSEMBLY
  2
NEXT-ASSEMBLY
 70
     4
  0
ATTDEF
  5
5B6
  8
A1-BORDER-LABELS
 10
-8.0
 20
1.25
 30
0.0
 40
0.125
  1

 51
15.0
  7
LEROY
  3
NEXT ASSEMBLY
  2
NEXT-ASSEMBLY
 70
     4
  0
ENDBLK
  5
5B7
  8
0
  0
BLOCK
  8
0
  2
LAYERS2
 70
     0
 10
0.0
 20
0.0
 30
0.0
  3
LAYERS2
  1

  0
ENDBLK
  5
5BA
  8
0
  0
ENDSEC
  0
SECTION
  2
ENTITIES
  0
INSERT
  5
665
  8
0
  2
LAYERS
 10
0.0
 20
0.0
 30
0.0
  0
INSERT
  5
666
  8
0
  2
DS
 10
0.0
 20
0.0
 30
0.0
  0
INSERT
  5
667
  8
A1-BORDER-LABELS
 66
     1
  2
DTITLE
 10
33.5
 20
0.5
 30
0.0
  0
ATTRIB
  5
668
  8
A1-BORDER-LABELS
 10
29.625
 20
1.125
 30
0.0
 40
0.125
  1
BASE PLATE  (TP18 & TP26)
 51
15.0
  7
LEROY
  2
DRAW-TITLE
 70
     4
  0
ATTRIB
  5
669
  8
A1-BORDER-LABELS
 10
33.1875
 20
0.625
 30
0.0
 40
0.125
  1
E
 51
15.0
  7
LEROY
  2
R
 70
     4
  0
ATTRIB
  5
66A
  8
A1-BORDER-LABELS
 10
31.375
 20
0.625
 30
0.0
 40
0.125
  1
026-000-145
 51
15.0
  7
LEROY
  2
DRAW-NO.
 70
     4
  0
ATTRIB
  5
66B
  8
A1-BORDER-LABELS
 10
29.625
 20
0.625
 30
0.0
 40
0.125
  1
600-000-051
 51
15.0
  7
LEROY
  2
FROM
 70
     4
  0
ATTRIB
  5
66C
  8
A1-BORDER-LABELS
 10
21.875
 20
0.625
 30
0.0
 40
0.125
  1
G00145
 51
15.0
  7
LEROY
  2
FILE-NAME
 70
     4
  0
ATTRIB
  5
66D
  8
A1-BORDER-LABELS
 10
27.25
 20
1.625
 30
0.0
 40
0.125
  1
1/4
 51
15.0
  7
LEROY
  2
SCALE
 70
     4
  0
ATTRIB
  5
66E
  8
A1-BORDER-LABELS
 10
28.375
 20
0.625
 30
0.0
 40
0.125
  1
413.27
 51
15.0
  7
LEROY
  2
WEIGHT
 70
     4
  0
ATTRIB
  5
66F
  8
A1-BORDER-LABELS
 10
27.25
 20
0.625
 30
0.0
 40
0.125
  1
3/93
 51
15.0
  7
LEROY
  2
DATE
 70
     4
  0
ATTRIB
  5
670
  8
A1-BORDER-LABELS
 10
28.375
 20
1.625
 30
0.0
 40
0.125
  1
dak
 51
15.0
  7
LEROY
  2
DRAWN
 70
     4
  0
SEQEND
  5
671
  8
A1-BORDER-LABELS
  0
INSERT
  5
672
  8
A1-BORDER-LABELS
 66
     1
  2
NASSY
 10
33.5
 20
0.5
 30
0.0
  0
ATTRIB
  5
673
  8
A1-BORDER-LABELS
 10
23.75
 20
1.0
 30
0.0
 40
0.125
  1
018-000-001
 51
15.0
  7
LEROY
  2
NEXT-ASSEMBLY
 70
     4
  0
ATTRIB
  5
674
  8
A1-BORDER-LABELS
 10
25.5
 20
1.0
 30
0.0
 40
0.125
  1
026-000-019
 51
15.0
  7
LEROY
  2
NEXT-ASSEMBLY
 70
     4
  0
ATTRIB
  5
675
  8
A1-BORDER-LABELS
 10
23.75
 20
1.375
 30
0.0
 40
0.125
  1
026-000-020
 51
15.0
  7
LEROY
  2
NEXT-ASSEMBLY
 70
     4
  0
ATTRIB
  5
676
  8
A1-BORDER-LABELS
 10
25.5
 20
1.375
 30
0.0
 40
0.125
  1

 51
15.0
  7
LEROY
  2
NEXT-ASSEMBLY
 70
     4
  0
ATTRIB
  5
677
  8
A1-BORDER-LABELS
 10
23.75
 20
1.75
 30
0.0
 40
0.125
  1

 51
15.0
  7
LEROY
  2
NEXT-ASSEMBLY
 70
     4
  0
ATTRIB
  5
678
  8
A1-BORDER-LABELS
 10
25.5
 20
1.75
 30
0.0
 40
0.125
  1

 51
15.0
  7
LEROY
  2
NEXT-ASSEMBLY
 70
     4
  0
SEQEND
  5
679
  8
A1-BORDER-LABELS
  0
INSERT
  5
67A
  8
0
  2
LAYERS2
 10
4.8368200751364521
 20
6.7560069528659561
 30
0.0
 41
0.25
 42
0.25
 43
0.25
  0
LINE
  5
67B
  8
A-LINE-OBJECT
 10
27.445606638996448
 20
8.0025979470146744
 30
0.0
 11
27.445606638996448
 21
15.877597947014671
 31
0.0
  0
LINE
  5
67C
  8
A-LINE-OBJECT
 10
27.195606638996448
 20
8.0025979470146744
 30
0.0
 11
27.195606638996448
 21
15.877597947014671
 31
0.0
  0
LINE
  5
67D
  8
A-LINE-OBJECT
 10
27.195606638996448
 20
15.877597947014671
 30
0.0
 11
27.445606638996448
 21
15.877597947014671
 31
0.0
  0
LINE
  5
67E
  8
A-LINE-OBJECT
 10
27.195606638996448
 20
8.0025979470146744
 30
0.0
 11
27.445606638996448
 21
8.0025979470146744
 31
0.0
  0
LINE
  5
67F
  8
A-LINE-HIDDEN
 62
     3
 10
27.195606638996448
 20
9.7838479470146744
 30
0.0
 11
27.445606638996448
 21
9.7838479470146744
 31
0.0
  0
LINE
  5
680
  8
A-LINE-HIDDEN
 62
     3
 10
27.195606638996448
 20
10.90711440644106
 30
0.0
 11
27.445606638996448
 21
10.90711440644106
 31
0.0
  0
LINE
  5
681
  8
A-LINE-HIDDEN
 62
     3
 10
27.195606638996448
 20
8.5338479470146744
 30
0.0
 11
27.445606638996448
 21
8.5338479470146744
 31
0.0
  0
LINE
  5
682
  8
A-LINE-HIDDEN
 62
     3
 10
27.195606638996448
 20
8.2213479470146744
 30
0.0
 11
27.445606638996448
 21
8.2213479470146744
 31
0.0
  0
LINE
  5
683
  8
A-LINE-CENTER
 62
     5
 10
27.133106638996448
 20
8.3775979470146744
 30
0.0
 11
27.508106638996448
 21
8.3775979470146744
 31
0.0
  0
LINE
  5
684
  8
A-LINE-CENTER
 62
     5
 10
27.133106638996448
 20
15.502597947014671
 30
0.0
 11
27.508106638996448
 21
15.502597947014671
 31
0.0
  0
LINE
  5
685
  8
A-LINE-CENTER
 10
7.0018200751364521
 20
15.502597947014671
 30
0.0
 11
7.046820075136452
 21
15.502597947014671
 31
0.0
  0
LINE
  5
686
  8
A-LINE-CENTER
 10
7.0243200751364512
 20
15.48009794701467
 30
0.0
 11
7.0243200751364512
 21
15.525097947014659
 31
0.0
  0
LINE
  5
687
  8
A-LINE-CENTER
 10
15.50182007513645
 20
15.502597947014671
 30
0.0
 11
15.54682007513644
 21
15.502597947014671
 31
0.0
  0
LINE
  5
688
  8
A-LINE-CENTER
 10
15.524320075136441
 20
15.48009794701467
 30
0.0
 11
15.524320075136441
 21
15.525097947014659
 31
0.0
  0
LINE
  5
689
  8
A-LINE-CENTER
 10
16.81432007513645
 20
8.3775979470146744
 30
0.0
 11
16.859320075136448
 21
8.3775979470146744
 31
0.0
  0
LINE
  5
68A
  8
A-LINE-CENTER
 10
16.836820075136451
 20
8.3550979470146771
 30
0.0
 11
16.836820075136451
 21
8.4000979470146788
 31
0.0
  0
LINE
  5
68B
  8
A-LINE-CENTER
 10
14.03307007513644
 20
8.3775979470146744
 30
0.0
 11
14.07807007513644
 21
8.3775979470146744
 31
0.0
  0
LINE
  5
68C
  8
A-LINE-CENTER
 10
14.055570075136441
 20
8.3550979470146771
 30
0.0
 11
14.055570075136441
 21
8.4000979470146788
 31
0.0
  0
LINE
  5
68D
  8
A-LINE-CENTER
 10
11.25182007513644
 20
8.3775979470146744
 30
0.0
 11
11.29682007513644
 21
8.3775979470146744
 31
0.0
  0
LINE
  5
68E
  8
A-LINE-CENTER
 10
11.274320075136441
 20
8.3550979470146771
 30
0.0
 11
11.274320075136441
 21
8.4000979470146788
 31
0.0
  0
LINE
  5
68F
  8
A-LINE-CENTER
 10
8.4705700751364539
 20
8.3775979470146744
 30
0.0
 11
8.515570075136452
 21
8.3775979470146744
 31
0.0
  0
LINE
  5
690
  8
A-LINE-CENTER
 10
8.4930700751364512
 20
8.3550979470146771
 30
0.0
 11
8.4930700751364512
 21
8.4000979470146788
 31
0.0
  0
LINE
  5
691
  8
A-LINE-CENTER
 10
5.689320075136445
 20
8.3775979470146904
 30
0.0
 11
5.7343200751364432
 21
8.3775979470146904
 31
0.0
  0
LINE
  5
692
  8
A-LINE-CENTER
 10
5.7118200751364441
 20
8.3550979470146913
 30
0.0
 11
5.7118200751364441
 21
8.4000979470146913
 31
0.0
  0
LINE
  5
693
  8
A-LINE-CENTER
 62
     5
 10
11.274320075136441
 20
7.5903414331648671
 30
0.0
 11
11.274320075136441
 21
11.82962539508677
 31
0.0
  0
TEXT
  5
694
  8
A1-DIMENSIONS
 10
12.598654742288961
 20
10.592397263735441
 30
0.0
 40
0.125
  1
3/16 R TYP
 51
15.0
  7
LEROY
 11
12.598654742288961
 21
10.654897263735441
 31
0.0
 73
     2
  0
LINE
  5
695
  8
A1-DIMENSIONS
 10
17.211820075136451
 20
12.180641194506251
 30
0.0
 11
17.211820075136451
 21
13.46245326150648
 31
0.0
  0
TEXT
  5
696
  8
A1-DIMENSIONS
 10
16.761053344477951
 20
12.986741371381431
 30
0.0
 40
0.125
  1
TYP
 51
15.0
  7
LEROY
  0
TEXT
  5
697
  8
A1-NOTES
 10
12.20707669050015
 20
13.50739871639454
 30
0.0
 40
0.125
  1
4 1/2 x 5 1/2
 51
15.0
  7
LEROY
  0
TEXT
  5
698
  8
A1-NOTES
 10
12.20707669050015
 20
13.3050177640136
 30
0.0
 40
0.125
  1
BURNED OPENING
 51
15.0
  7
LEROY
  0
TEXT
  5
699
  8
A1-DIMENSIONS
 10
11.149739371238359
 20
13.34231064292222
 30
0.0
 40
0.1901905711881733
  1
C
 51
15.0
  7
LEROY
  0
TEXT
  5
69A
  8
A1-DIMENSIONS
 10
11.187637429345379
 20
13.22795661976248
 30
0.0
 40
0.1901905711881733
  1
L
 51
15.0
  7
LEROY
  0
LINE
  5
69B
  8
A1-DIMENSIONS
  6
BYBLOCK
 10
15.89886702075494
 20
15.87759794701468
 30
0.0
 11
21.465564852678739
 21
15.877597947014671
 31
0.0
  0
LINE
  5
69C
  8
A1-DIMENSIONS
  6
BYBLOCK
 10
21.285564852678739
 20
8.1825979470146777
 30
0.0
 11
21.285564852678739
 21
11.76009794701466
 31
0.0
  0
LINE
  5
69D
  8
A1-DIMENSIONS
  6
BYBLOCK
 10
21.285564852678739
 20
15.69759794701466
 30
0.0
 11
21.285564852678739
 21
12.120097947014671
 31
0.0
  0
SOLID
  5
69E
  8
A1-DIMENSIONS
  6
BYBLOCK
 10
21.255564852678742
 20
8.1825979470146777
 30
0.0
 11
21.315564852678751
 21
8.1825979470146777
 31
0.0
 12
21.285564852678739
 22
8.0025979470146744
 32
0.0
 13
21.285564852678739
 23
8.0025979470146744
 33
0.0
  0
SOLID
  5
69F
  8
A1-DIMENSIONS
  6
BYBLOCK
 10
21.255564852678742
 20
15.69759794701466
 30
0.0
 11
21.315564852678751
 21
15.69759794701466
 31
0.0
 12
21.285564852678739
 22
15.877597947014671
 32
0.0
 13
21.285564852678739
 23
15.877597947014671
 33
0.0
  0
TEXT
  5
6A0
  8
A1-DIMENSIONS
  6
BYBLOCK
 10
20.916517233631129
 20
11.877597947014671
 30
0.0
 40
0.125
  1
31 1/2
 51
15.0
  7
LEROY
 72
     1
 11
21.285564852678739
 21
11.940097947014671
 31
0.0
 73
     2
  0
POINT
  5
6A1
  8
A1-DIMENSIONS
  6
BYBLOCK
 10
21.285564852678739
 20
15.877597947014671
 30
0.0
  0
POINT
  5
6A2
  8
A1-DIMENSIONS
  6
BYBLOCK
 10
11.274320075136441
 20
5.9193997175091502
 30
0.0
  0
LINE
  5
6A3
  8
A1-DIMENSIONS
  6
BYBLOCK
 10
17.308197702102539
 20
8.0025979470146744
 30
0.0
 11
21.465564852678739
 21
8.0025979470146744
 31
0.0
  0
TEXT
  5
6A4
  8
A1-NOTES
 10
29.598998164850322
 20
3.288555375707042
 30
0.0
 40
0.125
  1
MATERIAL
 51
15.0
  7
LEROY
  0
TEXT
  5
6A5
  8
A1-NOTES
 10
29.598998164850322
 20
3.0861744233260899
 30
0.0
 40
0.125
  1
ASTM A-36 PLATE
 51
15.0
  7
LEROY
  0
TEXT
  5
6A6
  8
A1-NOTES
 10
29.598998164850322
 20
2.8837934709451369
 30
0.0
 40
0.125
  1
1" x 31 1/2 x 47 1/2
 51
15.0
  7
LEROY
  0
TEXT
  5
6A7
  8
A1-BORDER-LABELS
 10
27.25
 20
1.125
 30
0.0
 40
0.125
  1
R.V.
 51
15.0
  7
LEROY
  0
SOLID
  5
6A8
  8
A1-DIMENSIONS
 10
11.794703745140531
 20
9.9860735736698985
 30
0.0
 11
11.749643314059799
 21
9.9464559317560024
 31
0.0
 12
11.89102645534185
 22
9.8310834594707224
 32
0.0
 13
11.89102645534185
 23
9.8310834594707224
 33
0.0
  0
LINE
  5
6A9
  8
A1-DIMENSIONS
 10
11.77217352960017
 20
9.9662647527129504
 30
0.0
 11
11.6103002895697
 21
10.150376618635249
 31
0.0
  0
LINE
  5
6AA
  8
A1-DIMENSIONS
 10
11.6103002895697
 20
10.150376618635249
 30
0.0
 11
12.375036963145281
 21
10.663180707859111
 31
0.0
  0
LINE
  5
6AB
  8
A1-DIMENSIONS
 10
12.375036963145281
 20
10.663180707859111
 30
0.0
 11
12.491199500850581
 21
10.663180707859111
 31
0.0
  0
LINE
  5
6AC
  8
A-LINE-CENTER
 62
     5
 10
11.274320075136441
 20
12.205170000234521
 30
0.0
 11
11.274320075136441
 21
13.09560577457116
 31
0.0
  0
LINE
  5
6AD
  8
A1-DIMENSIONS
 10
11.961320075136451
 20
11.56300676321581
 30
0.0
 11
12.16279737247414
 21
11.56300676321581
 31
0.0
  0
INSERT
  5
6AE
  8
0
  2
LAYERS2
 10
5.375
 20
3.875
 30
0.0
 41
0.25
 42
0.25
 43
0.25
  0
LINE
  5
6AF
  8
A-LINE-OBJECT
 10
5.7118200751364512
 20
8.0025979470146744
 30
0.0
 11
8.4227575751364512
 21
8.0025979470146744
 31
0.0
  0
LINE
  5
6B0
  8
A-LINE-OBJECT
 10
6.8368200751364494
 20
15.877597947014671
 30
0.0
 11
6.9540075751364512
 21
15.877597947014671
 31
0.0
  0
LINE
  5
6B1
  8
A-LINE-OBJECT
 10
5.3368200751364512
 20
8.3775979470146744
 30
0.0
 11
5.3368200751364512
 21
11.902116999853
 31
0.0
  0
LINE
  5
6B2
  8
A-LINE-OBJECT
 10
17.211820075136451
 20
8.3775979470146744
 30
0.0
 11
17.211820075136451
 21
11.902116999853
 31
0.0
  0
ARC
  5
6B3
  8
A-LINE-OBJECT
 10
16.836820075136451
 20
8.3775979470146744
 30
0.0
 40
0.375
 50
270.0
 51
302.62637488381091
  0
ARC
  5
6B4
  8
A-LINE-OBJECT
 10
5.7118200751364512
 20
8.3775979470146744
 30
0.0
 40
0.375
 50
180.0
 51
212.62637488381171
  0
LINE
  5
6B5
  8
A-LINE-OBJECT
 10
8.4696325751364512
 20
8.1870305889264277
 30
0.0
 11
8.4696325751364512
 21
8.0494729470146744
 31
0.0
  0
LINE
  5
6B6
  8
A-LINE-OBJECT
 10
8.5165075751364512
 20
8.1870305889264241
 30
0.0
 11
8.5165075751364512
 21
8.0494729470146744
 31
0.0
  0
LINE
  5
6B7
  8
A-LINE-OBJECT
 10
8.5633825751364512
 20
8.0025979470146744
 30
0.0
 11
11.204007575136441
 21
8.0025979470146744
 31
0.0
  0
ARC
  5
6B8
  8
A-LINE-OBJECT
 10
8.5633825751364512
 20
8.0494729470146744
 30
0.0
 40
0.046875
 50
180.0
 51
270.0
  0
ARC
  5
6B9
  8
A-LINE-OBJECT
 10
8.4227575751364512
 20
8.0494729470146744
 30
0.0
 40
0.046875
 50
270.0
 51
0.0
  0
ARC
  5
6BA
  8
A-LINE-OBJECT
 10
11.204007575136441
 20
8.0494729470146744
 30
0.0
 40
0.046875
 50
270.0
 51
0.0
  0
ARC
  5
6BB
  8
A-LINE-OBJECT
 10
11.344632575136441
 20
8.0494729470146744
 30
0.0
 40
0.046875
 50
180.0
 51
270.0
  0
LINE
  5
6BC
  8
A-LINE-OBJECT
 10
11.297757575136441
 20
8.187030588926385
 30
0.0
 11
11.297757575136441
 21
8.0494729470146744
 31
0.0
  0
LINE
  5
6BD
  8
A-LINE-OBJECT
 10
11.250882575136441
 20
8.1870305889263868
 30
0.0
 11
11.250882575136441
 21
8.0494729470146744
 31
0.0
  0
ARC
  5
6BE
  8
A-LINE-OBJECT
 10
13.985257575136441
 20
8.0494729470146744
 30
0.0
 40
0.046875
 50
270.0
 51
0.0
  0
ARC
  5
6BF
  8
A-LINE-OBJECT
 10
14.125882575136441
 20
8.0494729470146744
 30
0.0
 40
0.046875
 50
180.0
 51
270.0
  0
LINE
  5
6C0
  8
A-LINE-OBJECT
 10
14.079007575136441
 20
8.1870305889263371
 30
0.0
 11
14.079007575136441
 21
8.0494729470146744
 31
0.0
  0
LINE
  5
6C1
  8
A-LINE-OBJECT
 10
14.032132575136441
 20
8.1870305889263388
 30
0.0
 11
14.032132575136441
 21
8.0494729470146744
 31
0.0
  0
LINE
  5
6C2
  8
A-LINE-OBJECT
 10
5.5936414191434949
 20
8.2262736606536002
 30
0.0
 11
5.5017630511898821
 21
8.1343952926999865
 31
0.0
  0
LINE
  5
6C3
  8
A-LINE-OBJECT
 10
5.5604957887753681
 20
8.259419291021711
 30
0.0
 11
5.4686174208217633
 21
8.1675409230681062
 31
0.0
  0
LINE
  5
6C4
  8
A-LINE-OBJECT
 10
7.0477575751364512
 20
15.693165305102999
 30
0.0
 11
7.0477575751364512
 21
15.830722947014671
 31
0.0
  0
LINE
  5
6C5
  8
A-LINE-OBJECT
 10
7.0008825751364512
 20
15.693165305102999
 30
0.0
 11
7.0008825751364512
 21
15.830722947014671
 31
0.0
  0
ARC
  5
6C6
  8
A-LINE-OBJECT
 10
6.9540075751364512
 20
15.830722947014671
 30
0.0
 40
0.046875
 50
0.0
 51
90.0
  0
ARC
  5
6C7
  8
A-LINE-OBJECT
 10
7.0946325751364512
 20
15.830722947014671
 30
0.0
 40
0.046875
 50
90.0
 51
180.0
  0
LINE
  5
6C8
  8
A-LINE-OBJECT
 10
15.547757575136441
 20
15.67641509905598
 30
0.0
 11
15.547757575136441
 21
15.830722947014671
 31
0.0
  0
LINE
  5
6C9
  8
A-LINE-OBJECT
 10
15.500882575136441
 20
15.67641509905598
 30
0.0
 11
15.500882575136441
 21
15.830722947014671
 31
0.0
  0
ARC
  5
6CA
  8
A-LINE-OBJECT
 10
15.454007575136441
 20
15.830722947014671
 30
0.0
 40
0.046875
 50
0.0
 51
90.0
  0
ARC
  5
6CB
  8
A-LINE-OBJECT
 10
15.594632575136441
 20
15.830722947014671
 30
0.0
 40
0.046875
 50
90.0
 51
180.0
  0
LINE
  5
6CC
  8
A-LINE-OBJECT
 10
16.9549987311294
 20
8.2262736606536055
 30
0.0
 11
17.046877099083002
 21
8.1343952927000061
 31
0.0
  0
LINE
  5
6CD
  8
A-LINE-OBJECT
 10
16.988144361497518
 20
8.2594192910217235
 30
0.0
 11
17.08002272945112
 21
8.1675409230681222
 31
0.0
  0
LINE
  5
6CE
  8
A-LINE-OBJECT
 10
11.344632575136441
 20
8.0025979470146744
 30
0.0
 11
13.985257575136441
 21
8.0025979470146744
 31
0.0
  0
LINE
  5
6CF
  8
A-LINE-OBJECT
 10
14.125882575136441
 20
8.0025979470146744
 30
0.0
 11
16.836820075136451
 21
8.0025979470146744
 31
0.0
  0
LINE
  5
6D0
  8
A-LINE-OBJECT
 10
15.594632575136441
 20
15.877597947014671
 30
0.0
 11
15.711820075136441
 21
15.877597947014671
 31
0.0
  0
LINE
  5
6D1
  8
A-LINE-OBJECT
 10
7.0946325751364512
 20
15.877597947014671
 30
0.0
 11
15.454007575136441
 21
15.877597947014671
 31
0.0
  0
ARC
  5
6D2
  8
A-LINE-OBJECT
 10
5.7118200751364512
 20
8.3775979470146744
 30
0.0
 40
0.375
 50
237.373625116189
 51
270.0
  0
ARC
  5
6D3
  8
A-LINE-OBJECT
 10
5.5349086815580009
 20
8.1012496623318651
 30
0.0
 40
0.046875
 50
135.0
 51
237.37362511618929
  0
ARC
  5
6D4
  8
A-LINE-OBJECT
 10
5.4354717904536418
 20
8.2006865534362277
 30
0.0
 40
0.046875
 50
212.62637488381171
 51
315.0
  0
ARC
  5
6D5
  8
A-LINE-OBJECT
 10
16.836820075136451
 20
8.3775979470146744
 30
0.0
 40
0.375
 50
327.3736251161896
 51
0.0
  0
ARC
  5
6D6
  8
A-LINE-OBJECT
 10
17.113168359819241
 20
8.2006865534362454
 30
0.0
 40
0.046875
 50
224.9999999999996
 51
327.37362511618898
  0
ARC
  5
6D7
  8
A-LINE-OBJECT
 10
17.01373146871488
 20
8.1012496623318864
 30
0.0
 40
0.046875
 50
302.6263748838112
 51
45.000000000002089
  0
LINE
  5
6D8
  8
A-LINE-OBJECT
 10
10.633570075136451
 20
10.908847947014671
 30
0.0
 11
11.91507007513645
 21
10.908847947014671
 31
0.0
  0
LINE
  5
6D9
  8
A-LINE-OBJECT
 10
10.586820075136441
 20
9.8305979470146756
 30
0.0
 11
10.586820075136441
 21
10.86209794701467
 31
0.0
  0
LINE
  5
6DA
  8
A-LINE-OBJECT
 10
11.961820075136441
 20
9.8305979470146756
 30
0.0
 11
11.961820075136441
 21
10.86209794701467
 31
0.0
  0
LINE
  5
6DB
  8
A-LINE-OBJECT
 10
10.633570075136451
 20
9.7838479470146744
 30
0.0
 11
11.91507007513645
 21
9.7838479470146744
 31
0.0
  0
ARC
  5
6DC
  8
A-LINE-OBJECT
 10
10.633570075136451
 20
9.8305979470146756
 30
0.0
 40
0.04675
 50
180.0
 51
270.0
  0
ARC
  5
6DD
  8
A-LINE-OBJECT
 10
10.633570075136451
 20
10.86209794701467
 30
0.0
 40
0.04675
 50
89.999999999999986
 51
180.0
  0
ARC
  5
6DE
  8
A-LINE-OBJECT
 10
11.91507007513645
 20
10.86209794701467
 30
0.0
 40
0.04675
 50
0.0
 51
90.0
  0
ARC
  5
6DF
  8
A-LINE-OBJECT
 10
11.91507007513645
 20
9.8305979470146756
 30
0.0
 40
0.04675
 50
270.0
 51
0.0000000000000509
  0
LINE
  5
6E0
  8
A1-DIMENSIONS
 10
17.229785901671601
 20
11.971480222655821
 30
0.0
 11
17.193854248601301
 21
12.033715671373511
 31
0.0
  0
LINE
  5
6E1
  8
A-LINE-OBJECT
 10
5.3870605487172849
 20
12.089616999853
 30
0.0
 11
6.4115796015556139
 21
13.864136052691331
 31
0.0
  0
LINE
  5
6E2
  8
A-LINE-OBJECT
 10
6.4618200751364512
 20
14.051636052691331
 30
0.0
 11
6.4618200751364512
 21
15.502597947014671
 31
0.0
  0
LINE
  5
6E3
  8
A-LINE-OBJECT
 10
16.086820075136451
 20
14.051636052691331
 30
0.0
 11
16.086820075136451
 21
15.502597947014671
 31
0.0
  0
ARC
  5
6E4
  8
A-LINE-OBJECT
 10
16.836820075136451
 20
11.902116999853
 30
0.0
 40
0.375
 50
0.0
 51
30.000000000000011
  0
ARC
  5
6E5
  8
A-LINE-OBJECT
 10
16.461820075136451
 20
14.051636052691331
 30
0.0
 40
0.375
 50
180.0
 51
210.0
  0
ARC
  5
6E6
  8
A-LINE-OBJECT
 10
15.711820075136441
 20
15.502597947014671
 30
0.0
 40
0.375
 50
0.0000000000000509
 51
90.0
  0
ARC
  5
6E7
  8
A-LINE-OBJECT
 10
6.8368200751364512
 20
15.502597947014671
 30
0.0
 40
0.375
 50
90.000000000000185
 51
180.0
  0
ARC
  5
6E8
  8
A-LINE-OBJECT
 10
6.0868200751364512
 20
14.051636052691331
 30
0.0
 40
0.375
 50
330.0
 51
0.0
  0
ARC
  5
6E9
  8
A-LINE-OBJECT
 10
5.7118200751364512
 20
11.902116999853
 30
0.0
 40
0.375
 50
149.9999999999998
 51
180.0
  0
LINE
  5
6EA
  8
A-LINE-OBJECT
 10
17.161579601555609
 20
12.089616999853
 30
0.0
 11
16.13706054871729
 21
13.864136052691331
 31
0.0
  0
LINE
  5
6EB
  8
A1-DIMENSIONS
 10
17.211820075136451
 20
11.96666629394436
 30
0.0
 11
17.211820075136451
 21
12.038529600084971
 31
0.0
  0
LINE
  5
6EC
  8
A1-DIMENSIONS
 10
18.804999999999978
 20
8.3775979470146744
 30
0.0
 11
19.582148001605781
 21
8.3775979470146744
 31
0.0
  0
SOLID
  5
6ED
  8
A1-DIMENSIONS
 10
6.2800899477454299
 20
14.06774045345413
 30
0.0
 11
6.2513335079825074
 21
14.015080533475439
 31
0.0
 12
6.4236914878000171
 22
13.955141174176021
 32
0.0
 13
6.4236914878000171
 23
13.955141174176021
 33
0.0
  0
LINE
  5
6EE
  8
A1-DIMENSIONS
 10
6.2657117278639678
 20
14.041410493464779
 30
0.0
 11
4.538470304606891
 21
14.98461955956337
 31
0.0
  0
LINE
  5
6EF
  8
A1-DIMENSIONS
 10
4.538470304606891
 20
14.98461955956337
 30
0.0
 11
4.3584703046068913
 21
14.98461955956337
 31
0.0
  0
TEXT
  5
6F0
  8
A1-DIMENSIONS
 10
3.1791845903211762
 20
14.92211955956337
 30
0.0
 40
0.125
  1
1 1/2 RAD
 51
15.0
  7
LEROY
 72
     2
 11
4.2684703046068897
 21
14.98461955956337
 31
0.0
 73
     2
  0
TEXT
  5
6F1
  8
A1-DIMENSIONS
 10
3.1298875108522859
 20
14.699674679138701
 30
0.0
 40
0.125
  1
TYP (8 PLCS)
 51
15.0
  7
LEROY
 72
     1
 11
3.7935779870427631
 21
14.699674679138701
 31
0.0
  0
LINE
  5
6F2
  8
A-LINE-CENTER
 62
     5
 10
11.274320075136441
 20
13.626030611263911
 30
0.0
 11
11.274320075136441
 21
16.336121286805181
 31
0.0
  0
LINE
  5
6F3
  8
A1-DIMENSIONS
  6
BYBLOCK
 10
11.274320075136441
 20
7.5278414331648671
 30
0.0
 11
11.274320075136441
 21
5.8200000000000003
 31
0.0
  0
LINE
  5
6F4
  8
A1-DIMENSIONS
  6
BYBLOCK
 10
16.086820075136451
 20
13.763697344200979
 30
0.0
 11
16.086820075136451
 21
5.8200000000000003
 31
0.0
  0
LINE
  5
6F5
  8
A1-DIMENSIONS
  6
BYBLOCK
 10
11.45432007513644
 20
6.0
 30
0.0
 11
13.01748931242415
 21
6.0
 31
0.0
  0
LINE
  5
6F6
  8
A1-DIMENSIONS
  6
BYBLOCK
 10
15.906820075136441
 20
6.0
 30
0.0
 11
14.343650837848729
 21
6.0
 31
0.0
  0
SOLID
  5
6F7
  8
A1-DIMENSIONS
  6
BYBLOCK
 10
11.45432007513644
 20
6.0300000000000002
 30
0.0
 11
11.45432007513644
 21
5.969999999999998
 31
0.0
 12
11.274320075136441
 22
6.0
 32
0.0
 13
11.274320075136441
 23
6.0
 33
0.0
  0
SOLID
  5
6F8
  8
A1-DIMENSIONS
  6
BYBLOCK
 10
15.906820075136441
 20
6.0300000000000002
 30
0.0
 11
15.906820075136441
 21
5.969999999999998
 31
0.0
 12
16.086820075136451
 22
6.0
 32
0.0
 13
16.086820075136451
 23
6.0
 33
0.0
  0
TEXT
  5
6F9
  8
A1-DIMENSIONS
  6
BYBLOCK
 10
13.07342721799359
 20
5.9375
 30
0.0
 40
0.125
  1
19 1/4 TYP
 51
15.0
  7
LEROY
 72
     1
 11
13.680570075136441
 21
6.0
 31
0.0
 73
     2
  0
POINT
  5
6FA
  8
A1-DIMENSIONS
  6
BYBLOCK
 10
16.086820075136451
 20
14.051636052691331
 30
0.0
  0
POINT
  5
6FB
  8
A1-DIMENSIONS
  6
BYBLOCK
 10
16.086820075136451
 20
6.0
 30
0.0
  0
TEXT
  5
6FC
  8
A1-DIMENSIONS
 10
3.1648831178106791
 20
17.6137757045367
 30
0.0
 40
0.125
  1
1 1/4 DIA BURN
 51
15.0
  7
LEROY
  0
LINE
  5
6FD
  8
A1-DIMENSIONS
 10
4.9428799128558882
 20
17.668628354152421
 30
0.0
 11
5.2282171312050689
 21
17.668628354152421
 31
0.0
  0
TEXT
  5
6FE
  8
A1-DIMENSIONS
 10
3.483143986187041
 20
17.411394752155751
 30
0.0
 40
0.125
  1
 (7) PLACES
 51
15.0
  7
LEROY
  0
ARC
  5
6FF
  8
A-LINE-OBJECT
 10
7.0243200751364512
 20
15.502597947014671
 30
0.0
 40
0.15625
 50
110.2522467421846
 51
69.747753257815916
  0
ARC
  5
700
  8
A-LINE-OBJECT
 10
7.0946325751364512
 20
15.693165305102999
 30
0.0
 40
0.046875
 50
180.0
 51
249.7477532578157
  0
ARC
  5
701
  8
A-LINE-OBJECT
 10
6.9540075751364494
 20
15.693165305102999
 30
0.0
 40
0.046875
 50
290.25224674218481
 51
0.0
  0
ARC
  5
702
  8
A-LINE-OBJECT
 10
15.524320075136441
 20
15.502597947014671
 30
0.0
 40
0.15625
 50
110.2522467421846
 51
69.747753257815916
  0
LINE
  5
703
  8
A-LINE-CENTER
 10
15.50182007513645
 20
15.502597947014671
 30
0.0
 11
15.54682007513644
 21
15.502597947014671
 31
0.0
  0
ARC
  5
704
  8
A-LINE-OBJECT
 10
15.454007575136441
 20
15.693165305102999
 30
0.0
 40
0.046875
 50
290.25224674218481
 51
0.0
  0
LINE
  5
705
  8
A-LINE-CENTER
 10
15.524320075136441
 20
15.48009794701467
 30
0.0
 11
15.524320075136441
 21
15.525097947014659
 31
0.0
  0
ARC
  5
706
  8
A-LINE-OBJECT
 10
15.594632575136441
 20
15.693165305102999
 30
0.0
 40
0.046875
 50
180.0
 51
249.7477532578157
  0
SOLID
  5
707
  8
A1-DIMENSIONS
 10
6.790358080741127
 20
15.79504879381099
 30
0.0
 11
6.7438057320231604
 21
15.7571954078483
 31
0.0
 12
6.8806420642702291
 22
15.636465054675741
 32
0.0
 13
6.8806420642702291
 23
15.636465054675741
 33
0.0
  0
LINE
  5
708
  8
A1-DIMENSIONS
 10
6.7670819063821437
 20
15.776122100829649
 30
0.0
 11
5.228217131205068
 21
17.668628354152421
 31
0.0
  0
LINE
  5
709
  8
A-LINE-HIDDEN
 62
     3
 10
27.195606638996448
 20
15.658847947014671
 30
0.0
 11
27.445606638996448
 21
15.658847947014671
 31
0.0
  0
LINE
  5
70A
  8
A-LINE-HIDDEN
 62
     3
 10
27.195606638996448
 20
15.346347947014671
 30
0.0
 11
27.445606638996448
 21
15.346347947014671
 31
0.0
  0
TEXT
  5
70B
  8
REV-E
 10
25.75
 20
20.75
 30
0.0
 40
0.125
  1
E
 51
15.0
  7
LEROY
  0
TEXT
  5
70C
  8
REV-E
 10
26.375
 20
20.874999999999989
 30
0.0
 40
0.125
  1
FRONT HOLES WERE 1 1/4 DIA (2) PLACES &
 51
15.0
  7
LEROY
  0
TEXT
  5
70D
  8
REV-E
 10
26.375
 20
20.67261904761904
 30
0.0
 40
0.125
  1
REAR HOLES WERE 1 1/8 DIA (5) PLACES
 51
15.0
  7
LEROY
  0
TEXT
  5
70E
  8
REV-E
 10
31.25
 20
20.75
 30
0.0
 40
0.125
  1
2/97
 51
15.0
  7
LEROY
  0
TEXT
  5
70F
  8
REV-E
 10
32.125
 20
20.75
 30
0.0
 40
0.125
  1
dak
 51
15.0
  7
LEROY
  0
LINE
  5
710
  8
REV-E
 10
25.375
 20
20.625
 30
0.0
 11
33.5
 21
20.625
 31
0.0
  0
POLYLINE
  5
711
  8
REV-E
 66
     1
 10
0.0
 20
0.0
 30
0.0
 70
     1
  0
VERTEX
  5
7EF
  8
REV-E
 10
2.8860351595897211
 20
17.7557251286769
 30
0.0
  0
VERTEX
  5
7F0
  8
REV-E
 10
2.6695288086436122
 20
17.3807251286769
 30
0.0
  0
VERTEX
  5
7F1
  8
REV-E
 10
3.1025415105358309
 20
17.3807251286769
 30
0.0
  0
SEQEND
  5
7F2
  8
REV-E
  0
TEXT
  5
716
  8
REV-E
 10
2.815527330446514
 20
17.41669288500697
 30
0.0
 40
0.125
  1
E
 51
15.0
  7
LEROY
  0
ARC
  5
717
  8
A-LINE-OBJECT
 10
5.7118200751364441
 20
8.3775979470146904
 30
0.0
 40
0.15625
 50
245.2522467421939
 51
204.74775325781309
  0
ARC
  5
718
  8
A-LINE-OBJECT
 10
8.4930700751364512
 20
8.3775979470146744
 30
0.0
 40
0.15625
 50
290.25224674219072
 51
249.74775325780911
  0
ARC
  5
719
  8
A-LINE-OBJECT
 10
11.274320075136441
 20
8.3775979470146744
 30
0.0
 40
0.15625
 50
290.252246742186
 51
249.74775325781181
  0
ARC
  5
71A
  8
A-LINE-OBJECT
 10
14.055570075136441
 20
8.3775979470146744
 30
0.0
 40
0.15625
 50
290.25224674218168
 51
249.7477532578165
  0
ARC
  5
71B
  8
A-LINE-OBJECT
 10
16.836820075136451
 20
8.3775979470146744
 30
0.0
 40
0.15625
 50
335.2522467421926
 51
294.74775325780882
  0
ARC
  5
71C
  8
A-LINE-OBJECT
 10
5.6267870495116163
 20
8.1931280302854805
 30
0.0
 40
0.046875
 50
65.25224674219379
 51
135.0
  0
ARC
  5
71D
  8
A-LINE-OBJECT
 10
5.5273501584072484
 20
8.2925649213898307
 30
0.0
 40
0.046875
 50
314.99999999999909
 51
24.747753257821589
  0
ARC
  5
71E
  8
A-LINE-OBJECT
 10
8.5633825751364512
 20
8.1870305889264241
 30
0.0
 40
0.046875
 50
110.25224674219071
 51
180.0
  0
ARC
  5
71F
  8
A-LINE-OBJECT
 10
8.4227575751364512
 20
8.1870305889264277
 30
0.0
 40
0.046875
 50
0.0
 51
69.747753257808355
  0
ARC
  5
720
  8
A-LINE-OBJECT
 10
11.204007575136441
 20
8.1870305889263868
 30
0.0
 40
0.046875
 50
0.0
 51
69.747753257811155
  0
ARC
  5
721
  8
A-LINE-OBJECT
 10
11.344632575136441
 20
8.187030588926385
 30
0.0
 40
0.046875
 50
110.2522467421866
 51
180.0
  0
ARC
  5
722
  8
A-LINE-OBJECT
 10
14.125882575136441
 20
8.1870305889263371
 30
0.0
 40
0.046875
 50
110.25224674218209
 51
180.0
  0
ARC
  5
723
  8
A-LINE-OBJECT
 10
13.985257575136441
 20
8.1870305889263388
 30
0.0
 40
0.046875
 50
0.0
 51
69.747753257816953
  0
ARC
  5
724
  8
A-LINE-OBJECT
 10
16.921853100761268
 20
8.1931280302854841
 30
0.0
 40
0.046875
 50
45.0
 51
114.7477532578105
  0
ARC
  5
725
  8
A-LINE-OBJECT
 10
17.021289991865629
 20
8.2925649213898431
 30
0.0
 40
0.046875
 50
155.25224674218401
 51
225.00000000000151
  0
TEXT
  5
726
  8
REV-E
 10
32.817783259500551
 20
20.870818243147571
 30
0.0
 40
0.125
  1
RW
 51
15.0
  7
LEROY
  0
TEXT
  5
727
  8
REV-E
 10
33.139355571022591
 20
20.676646039086609
 30
0.0
 40
0.125
  1
RV
 51
15.0
  7
LEROY
  0
TEXT
  5
728
  8
A1-BORDER-LABELS
 10
33.027563534237061
 20
20.78248534243405
 30
0.0
 40
0.125
  1
/
 51
15.0
  7
LEROY
  0
TEXT
  5
729
  8
A-LINE-OBJECT
 10
12.698456447933831
 20
2.549295552471702
 30
0.0
 40
0.375
  1
USED ON MOHAWK MODEL TP-18A, TP-26A & TP-30A
  7
LABEL
  0
LINE
  5
72A
  8
A1-DIMENSIONS
 10
17.039945075136451
 20
8.3775979470146744
 30
0.0
 11
18.804999999999978
 21
8.3775979470146744
 31
0.0
  0
LINE
  5
72B
  8
A1-DIMENSIONS
 10
17.426717937797498
 20
12.002597947014671
 30
0.0
 11
18.804999999999978
 21
12.002597947014671
 31
0.0
  0
LINE
  5
72C
  8
A1-DIMENSIONS
 10
18.625
 20
8.5575979470146777
 30
0.0
 11
18.625
 21
10.01009794701466
 31
0.0
  0
LINE
  5
72D
  8
A1-DIMENSIONS
 10
18.625
 20
11.82259794701466
 30
0.0
 11
18.625
 21
10.370097947014671
 31
0.0
  0
SOLID
  5
72E
  8
A1-DIMENSIONS
 10
18.594999999999992
 20
8.5575979470146777
 30
0.0
 11
18.655000000000001
 21
8.5575979470146777
 31
0.0
 12
18.625
 22
8.3775979470146744
 32
0.0
 13
18.625
 23
8.3775979470146744
 33
0.0
  0
SOLID
  5
72F
  8
A1-DIMENSIONS
 10
18.594999999999992
 20
11.82259794701466
 30
0.0
 11
18.655000000000001
 21
11.82259794701466
 31
0.0
 12
18.625
 22
12.002597947014671
 32
0.0
 13
18.625
 23
12.002597947014671
 33
0.0
  0
TEXT
  5
730
  8
A1-DIMENSIONS
 10
18.24702380952381
 20
10.127597947014671
 30
0.0
 40
0.125
  1
14 1/2
 51
15.0
  7
LEROY
 72
     1
 11
18.625
 21
10.190097947014671
 31
0.0
 73
     2
  0
LINE
  5
731
  8
A1-DIMENSIONS
 10
5.3368200751364512
 20
8.0461524159472138
 30
0.0
 11
5.3368200751364512
 21
3.819999999999999
 31
0.0
  0
LINE
  5
732
  8
A1-DIMENSIONS
 10
17.211820075136451
 20
7.9370475719433964
 30
0.0
 11
17.211820075136451
 21
3.819999999999999
 31
0.0
  0
LINE
  5
733
  8
A1-DIMENSIONS
 10
5.51682007513645
 20
4.0
 30
0.0
 11
10.82653617540675
 21
4.0
 31
0.0
  0
LINE
  5
734
  8
A1-DIMENSIONS
 10
17.031820075136451
 20
4.0
 30
0.0
 11
11.722103974866121
 21
4.0
 31
0.0
  0
SOLID
  5
735
  8
A1-DIMENSIONS
 10
5.51682007513645
 20
4.0300000000000002
 30
0.0
 11
5.51682007513645
 21
3.9700000000000002
 31
0.0
 12
5.3368200751364512
 22
4.0
 32
0.0
 13
5.3368200751364512
 23
4.0
 33
0.0
  0
SOLID
  5
736
  8
A1-DIMENSIONS
 10
17.031820075136451
 20
4.0300000000000002
 30
0.0
 11
17.031820075136451
 21
3.9700000000000002
 31
0.0
 12
17.211820075136451
 22
4.0
 32
0.0
 13
17.211820075136451
 23
4.0
 33
0.0
  0
TEXT
  5
737
  8
A1-DIMENSIONS
 10
10.905272456088831
 20
3.9375
 30
0.0
 40
0.125
  1
47 1/2
 51
15.0
  7
LEROY
 72
     1
 11
11.274320075136441
 21
4.0
 31
0.0
 73
     2
  0
LINE
  5
738
  8
A1-DIMENSIONS
 10
11.274320075136441
 20
7.4653414331648671
 30
0.0
 11
11.274320075136441
 21
4.5700000000000003
 31
0.0
  0
LINE
  5
739
  8
A1-DIMENSIONS
 10
17.211820075136451
 20
7.9995475719433964
 30
0.0
 11
17.211820075136451
 21
4.5700000000000003
 31
0.0
  0
LINE
  5
73A
  8
A1-DIMENSIONS
 10
11.45432007513644
 20
4.75
 30
0.0
 11
13.79406134584759
 21
4.75
 31
0.0
  0
LINE
  5
73B
  8
A1-DIMENSIONS
 10
17.031820075136451
 20
4.75
 30
0.0
 11
14.6920788044253
 21
4.75
 31
0.0
  0
SOLID
  5
73C
  8
A1-DIMENSIONS
 10
11.45432007513644
 20
4.7800000000000002
 30
0.0
 11
11.45432007513644
 21
4.719999999999998
 31
0.0
 12
11.274320075136441
 22
4.75
 32
0.0
 13
11.274320075136441
 23
4.75
 33
0.0
  0
SOLID
  5
73D
  8
A1-DIMENSIONS
 10
17.031820075136451
 20
4.7800000000000002
 30
0.0
 11
17.031820075136451
 21
4.719999999999998
 31
0.0
 12
17.211820075136451
 22
4.75
 32
0.0
 13
17.211820075136451
 23
4.75
 33
0.0
  0
TEXT
  5
73E
  8
A1-DIMENSIONS
 10
13.87104626561263
 20
4.6875
 30
0.0
 40
0.125
  1
23 3/4
 51
15.0
  7
LEROY
 72
     1
 11
14.243070075136441
 21
4.75
 31
0.0
 73
     2
  0
ARC
  5
73F
  8
A1-DIMENSIONS
 10
17.211820075136451
 20
12.00810311327632
 30
0.0
 40
1.3208674263771241
 50
97.813984176866384
 51
112.1860158231336
  0
SOLID
  5
740
  8
A1-DIMENSIONS
 10
17.03019428905138
 20
13.34663615113397
 30
0.0
 11
17.034282511602839
 21
13.28677559286418
 31
0.0
 12
17.211820075136451
 22
13.328970539653451
 32
0.0
 13
17.211820075136451
 23
13.328970539653451
 33
0.0
  0
SOLID
  5
741
  8
A1-DIMENSIONS
 10
16.72623587548863
 20
13.204234745486261
 30
0.0
 11
16.69984610093962
 21
13.25811962090833
 31
0.0
 12
16.551386361947898
 22
13.152007859550279
 32
0.0
 13
16.551386361947898
 23
13.152007859550279
 33
0.0
  0
TEXT
  5
742
  8
A1-DIMENSIONS
 10
16.564275621055309
 20
13.60702200859059
 30
0.0
 40
0.18
  1
30°
  0
LINE
  5
743
  8
A1-DIMENSIONS
 10
19.17860878781984
 20
8.3775979470146744
 30
0.0
 11
20.149665299607118
 21
8.3775979470146744
 31
0.0
  0
LINE
  5
744
  8
A1-DIMENSIONS
 10
15.586820075136441
 20
15.502597947014671
 30
0.0
 11
20.149665299607118
 21
15.502597947014671
 31
0.0
  0
LINE
  5
745
  8
A1-DIMENSIONS
 10
19.969665299607129
 20
8.5575979470146777
 30
0.0
 11
19.969665299607129
 21
11.76009794701466
 31
0.0
  0
LINE
  5
746
  8
A1-DIMENSIONS
 10
19.969665299607129
 20
15.32259794701468
 30
0.0
 11
19.969665299607129
 21
12.120097947014671
 31
0.0
  0
SOLID
  5
747
  8
A1-DIMENSIONS
 10
19.939665299607121
 20
8.5575979470146777
 30
0.0
 11
19.99966529960713
 21
8.5575979470146777
 31
0.0
 12
19.969665299607129
 22
8.3775979470146744
 32
0.0
 13
19.969665299607129
 23
8.3775979470146744
 33
0.0
  0
SOLID
  5
748
  8
A1-DIMENSIONS
 10
19.939665299607121
 20
15.32259794701468
 30
0.0
 11
19.99966529960713
 21
15.32259794701468
 31
0.0
 12
19.969665299607129
 22
15.502597947014671
 32
0.0
 13
19.969665299607129
 23
15.502597947014671
 33
0.0
  0
TEXT
  5
749
  8
A1-DIMENSIONS
 10
19.600617680559498
 20
11.877597947014671
 30
0.0
 40
0.125
  1
28 1/2
 51
15.0
  7
LEROY
 72
     1
 11
19.969665299607129
 21
11.940097947014671
 31
0.0
 73
     2
  0
LINE
  5
74A
  8
A1-DIMENSIONS
 10
11.274320075136441
 20
7.4653414331648671
 30
0.0
 11
11.274320075136441
 21
5.1950000000000003
 31
0.0
  0
LINE
  5
74B
  8
A1-DIMENSIONS
 10
16.836820075136451
 20
8.2166310216510823
 30
0.0
 11
16.836820075136451
 21
5.1950000000000003
 31
0.0
  0
LINE
  5
74C
  8
A1-DIMENSIONS
 10
11.45432007513644
 20
5.375
 30
0.0
 11
13.37165597909082
 21
5.375
 31
0.0
  0
LINE
  5
74D
  8
A1-DIMENSIONS
 10
16.656820075136451
 20
5.375
 30
0.0
 11
14.73948417118207
 21
5.375
 31
0.0
  0
SOLID
  5
74E
  8
A1-DIMENSIONS
 10
11.45432007513644
 20
5.4050000000000002
 30
0.0
 11
11.45432007513644
 21
5.344999999999998
 31
0.0
 12
11.274320075136441
 22
5.375
 32
0.0
 13
11.274320075136441
 23
5.375
 33
0.0
  0
SOLID
  5
74F
  8
A1-DIMENSIONS
 10
16.656820075136451
 20
5.4050000000000002
 30
0.0
 11
16.656820075136451
 21
5.344999999999998
 31
0.0
 12
16.836820075136451
 22
5.375
 32
0.0
 13
16.836820075136451
 23
5.375
 33
0.0
  0
TEXT
  5
750
  8
A1-DIMENSIONS
 10
13.457355789422159
 20
5.3125
 30
0.0
 40
0.125
  1
22 1/4 TYP
 51
15.0
  7
LEROY
 72
     1
 11
14.055570075136441
 21
5.375
 31
0.0
 73
     2
  0
LINE
  5
751
  8
A1-DIMENSIONS
 10
11.274320075136441
 20
17.10966021819338
 30
0.0
 11
11.274320075136441
 21
17.227160218193379
 31
0.0
  0
LINE
  5
752
  8
A1-DIMENSIONS
 10
15.524320075136441
 20
15.565097947014671
 30
0.0
 11
15.524320075136441
 21
17.227160218193379
 31
0.0
  0
LINE
  5
753
  8
A1-DIMENSIONS
 10
11.45432007513644
 20
17.047160218193358
 30
0.0
 11
13.177085609010421
 21
17.047160218193358
 31
0.0
  0
LINE
  5
754
  8
A1-DIMENSIONS
 10
15.34432007513645
 20
17.047160218193358
 30
0.0
 11
13.62155454126248
 21
17.047160218193358
 31
0.0
  0
SOLID
  5
755
  8
A1-DIMENSIONS
 10
11.45432007513644
 20
17.077160218193381
 30
0.0
 11
11.45432007513644
 21
17.017160218193371
 31
0.0
 12
11.274320075136441
 22
17.047160218193358
 32
0.0
 13
11.274320075136441
 23
17.047160218193358
 33
0.0
  0
SOLID
  5
756
  8
A1-DIMENSIONS
 10
15.34432007513645
 20
17.077160218193381
 30
0.0
 11
15.34432007513645
 21
17.017160218193371
 31
0.0
 12
15.524320075136441
 22
17.047160218193358
 32
0.0
 13
15.524320075136441
 23
17.047160218193358
 33
0.0
  0
TEXT
  5
757
  8
A1-DIMENSIONS
 10
13.22074864656501
 20
16.984660218193358
 30
0.0
 40
0.125
  1
17"
 51
15.0
  7
LEROY
 72
     1
 11
13.399320075136441
 21
17.047160218193358
 31
0.0
 73
     2
  0
LINE
  5
758
  8
A1-DIMENSIONS
 10
19.923631603950579
 20
8.3775979470146744
 30
0.0
 11
19.78966529960713
 21
8.3775979470146744
 31
0.0
  0
LINE
  5
759
  8
A1-DIMENSIONS
 10
19.923631603950579
 20
8.0025979470146744
 30
0.0
 11
19.78966529960713
 21
8.0025979470146744
 31
0.0
  0
LINE
  5
75A
  8
A1-DIMENSIONS
 10
19.969665299607129
 20
8.5575979470146777
 30
0.0
 11
19.969665299607129
 21
8.7375979470146774
 31
0.0
  0
LINE
  5
75B
  8
A1-DIMENSIONS
 10
19.969665299607129
 20
7.8225979470146783
 30
0.0
 11
19.969665299607129
 21
7.6425979470146741
 31
0.0
  0
LINE
  5
75C
  8
A1-DIMENSIONS
 10
19.969665299607129
 20
7.6425979470146741
 30
0.0
 11
19.78966529960713
 21
7.6425979470146741
 31
0.0
  0
SOLID
  5
75D
  8
A1-DIMENSIONS
 10
19.939665299607121
 20
8.5575979470146777
 30
0.0
 11
19.99966529960713
 21
8.5575979470146777
 31
0.0
 12
19.969665299607129
 22
8.3775979470146744
 32
0.0
 13
19.969665299607129
 23
8.3775979470146744
 33
0.0
  0
SOLID
  5
75E
  8
A1-DIMENSIONS
 10
19.939665299607121
 20
7.8225979470146783
 30
0.0
 11
19.99966529960713
 21
7.8225979470146783
 31
0.0
 12
19.969665299607129
 22
8.0025979470146744
 32
0.0
 13
19.969665299607129
 23
8.0025979470146744
 33
0.0
  0
TEXT
  5
75F
  8
A1-DIMENSIONS
 10
19.099798822609131
 20
7.5800979470146741
 30
0.0
 40
0.125
  1
1 1/2
 51
15.0
  7
LEROY
 72
     1
 11
19.41825120356151
 21
7.6425979470146741
 31
0.0
 73
     2
  0
LINE
  5
760
  8
A1-DIMENSIONS
 10
11.274320075136441
 20
8.3150979470146744
 30
0.0
 11
11.274320075136441
 21
6.4504387333551598
 31
0.0
  0
LINE
  5
761
  8
A1-DIMENSIONS
 10
14.055570075136441
 20
8.3150979470146744
 30
0.0
 11
14.055570075136441
 21
6.4504387333551598
 31
0.0
  0
LINE
  5
762
  8
A1-DIMENSIONS
 10
11.45432007513644
 20
6.6304387333551604
 30
0.0
 11
12.00186431242415
 21
6.6304387333551604
 31
0.0
  0
LINE
  5
763
  8
A1-DIMENSIONS
 10
13.875570075136441
 20
6.6304387333551604
 30
0.0
 11
13.32802583784874
 21
6.6304387333551604
 31
0.0
  0
SOLID
  5
764
  8
A1-DIMENSIONS
 10
11.45432007513644
 20
6.6604387333551598
 30
0.0
 11
11.45432007513644
 21
6.6004387333551611
 31
0.0
 12
11.274320075136441
 22
6.6304387333551604
 32
0.0
 13
11.274320075136441
 23
6.6304387333551604
 33
0.0
  0
SOLID
  5
765
  8
A1-DIMENSIONS
 10
13.875570075136441
 20
6.6604387333551598
 30
0.0
 11
13.875570075136441
 21
6.6004387333551611
 31
0.0
 12
14.055570075136441
 22
6.6304387333551604
 32
0.0
 13
14.055570075136441
 23
6.6304387333551604
 33
0.0
  0
TEXT
  5
766
  8
A1-DIMENSIONS
 10
12.05780221799359
 20
6.5679387333551604
 30
0.0
 40
0.125
  1
11 1/8 TYP
 51
15.0
  7
LEROY
 72
     1
 11
12.664945075136441
 21
6.6304387333551604
 31
0.0
 73
     2
  0
LINE
  5
767
  8
A1-DIMENSIONS
 10
10.58732007513645
 20
10.925347947014661
 30
0.0
 11
10.58732007513645
 21
12.2074331331766
 31
0.0
  0
LINE
  5
768
  8
A1-DIMENSIONS
 10
11.961320075136451
 20
11.62550676321581
 30
0.0
 11
11.961320075136451
 21
12.2074331331766
 31
0.0
  0
LINE
  5
769
  8
A1-DIMENSIONS
 10
10.76732007513645
 20
12.02743313317661
 30
0.0
 11
10.88526251709596
 21
12.02743313317661
 31
0.0
  0
LINE
  5
76A
  8
A1-DIMENSIONS
 10
11.781320075136451
 20
12.02743313317661
 30
0.0
 11
11.66337763317693
 21
12.02743313317661
 31
0.0
  0
SOLID
  5
76B
  8
A1-DIMENSIONS
 10
10.76732007513645
 20
12.057433133176611
 30
0.0
 11
10.76732007513645
 21
11.99743313317661
 31
0.0
 12
10.58732007513645
 22
12.02743313317661
 32
0.0
 13
10.58732007513645
 23
12.02743313317661
 33
0.0
  0
SOLID
  5
76C
  8
A1-DIMENSIONS
 10
11.781320075136451
 20
12.057433133176611
 30
0.0
 11
11.781320075136451
 21
11.99743313317661
 31
0.0
 12
11.961320075136451
 22
12.02743313317661
 32
0.0
 13
11.961320075136451
 23
12.02743313317661
 33
0.0
  0
TEXT
  5
76D
  8
A1-DIMENSIONS
 10
10.96479626561263
 20
11.96493313317661
 30
0.0
 40
0.125
  1
5 1/2
 51
15.0
  7
LEROY
 72
     1
 11
11.274320075136441
 21
12.02743313317661
 31
0.0
 73
     2
  0
LINE
  5
76E
  8
A1-DIMENSIONS
 10
11.274320075136441
 20
10.971347947014671
 30
0.0
 11
11.274320075136441
 21
11.74300676321581
 31
0.0
  0
LINE
  5
76F
  8
A1-DIMENSIONS
 10
11.961320075136451
 20
10.92534794701468
 30
0.0
 11
11.961320075136451
 21
11.74300676321581
 31
0.0
  0
LINE
  5
770
  8
A1-DIMENSIONS
 10
11.45432007513644
 20
11.56300676321581
 30
0.0
 11
11.781320075136451
 21
11.56300676321581
 31
0.0
  0
SOLID
  5
771
  8
A1-DIMENSIONS
 10
11.45432007513644
 20
11.59300676321581
 30
0.0
 11
11.45432007513644
 21
11.533006763215811
 31
0.0
 12
11.274320075136441
 22
11.56300676321581
 32
0.0
 13
11.274320075136441
 23
11.56300676321581
 33
0.0
  0
SOLID
  5
772
  8
A1-DIMENSIONS
 10
11.781320075136451
 20
11.59300676321581
 30
0.0
 11
11.781320075136451
 21
11.533006763215811
 31
0.0
 12
11.961320075136451
 22
11.56300676321581
 32
0.0
 13
11.961320075136451
 23
11.56300676321581
 33
0.0
  0
TEXT
  5
773
  8
A1-DIMENSIONS
 10
12.24646102735675
 20
11.51018230706841
 30
0.0
 40
0.125
  1
2 3/4
 51
15.0
  7
LEROY
 72
     1
 11
12.55896102735675
 21
11.572682307068421
 31
0.0
 73
     2
  0
LINE
  5
774
  8
A1-DIMENSIONS
 10
10.570820075136441
 20
9.7838479470146797
 30
0.0
 11
9.3296943928019047
 21
9.7838479470146797
 31
0.0
  0
LINE
  5
775
  8
A1-DIMENSIONS
 10
9.5334735205126648
 20
8.0025979470146744
 30
0.0
 11
9.6896943928019041
 21
8.0025979470146744
 31
0.0
  0
LINE
  5
776
  8
A1-DIMENSIONS
 10
9.5096943928019044
 20
9.60384794701468
 30
0.0
 11
9.5096943928019044
 21
9.0732229470146741
 31
0.0
  0
LINE
  5
777
  8
A1-DIMENSIONS
 10
9.5096943928019044
 20
8.1825979470146777
 30
0.0
 11
9.5096943928019044
 21
8.7132229470146783
 31
0.0
  0
SOLID
  5
778
  8
A1-DIMENSIONS
 10
9.4796943928019033
 20
9.60384794701468
 30
0.0
 11
9.5396943928019038
 21
9.60384794701468
 31
0.0
 12
9.5096943928019044
 22
9.7838479470146797
 32
0.0
 13
9.5096943928019044
 23
9.7838479470146797
 33
0.0
  0
SOLID
  5
779
  8
A1-DIMENSIONS
 10
9.4796943928019033
 20
8.1825979470146777
 30
0.0
 11
9.5396943928019038
 21
8.1825979470146777
 31
0.0
 12
9.5096943928019044
 22
8.0025979470146744
 32
0.0
 13
9.5096943928019044
 23
8.0025979470146744
 33
0.0
  0
TEXT
  5
77A
  8
A1-DIMENSIONS
 10
9.200170583278096
 20
8.8307229470146744
 30
0.0
 40
0.125
  1
7 1/8
 51
15.0
  7
LEROY
 72
     1
 11
9.5096943928019044
 21
8.8932229470146744
 31
0.0
 73
     2
  0
LINE
  5
77B
  8
A1-DIMENSIONS
 10
9.4471943928019044
 20
9.7838479470146797
 30
0.0
 11
9.3296943928019047
 21
9.7838479470146797
 31
0.0
  0
LINE
  5
77C
  8
A1-DIMENSIONS
 10
10.570820075136441
 20
10.908847947014671
 30
0.0
 11
9.3296943928019047
 21
10.908847947014671
 31
0.0
  0
LINE
  5
77D
  8
A1-DIMENSIONS
 10
9.5096943928019044
 20
9.9638479470146795
 30
0.0
 11
9.5096943928019044
 21
10.16634794701466
 31
0.0
  0
LINE
  5
77E
  8
A1-DIMENSIONS
 10
9.5096943928019044
 20
10.72884794701466
 30
0.0
 11
9.5096943928019044
 21
10.526347947014671
 31
0.0
  0
SOLID
  5
77F
  8
A1-DIMENSIONS
 10
9.4796943928019033
 20
9.9638479470146795
 30
0.0
 11
9.5396943928019038
 21
9.9638479470146795
 31
0.0
 12
9.5096943928019044
 22
9.7838479470146797
 32
0.0
 13
9.5096943928019044
 23
9.7838479470146797
 33
0.0
  0
SOLID
  5
780
  8
A1-DIMENSIONS
 10
9.4796943928019033
 20
10.72884794701466
 30
0.0
 11
9.5396943928019038
 21
10.72884794701466
 31
0.0
 12
9.5096943928019044
 22
10.908847947014671
 32
0.0
 13
9.5096943928019044
 23
10.908847947014671
 33
0.0
  0
TEXT
  5
781
  8
A1-DIMENSIONS
 10
9.2001705832780942
 20
10.283847947014671
 30
0.0
 40
0.125
  1
4 1/2
 51
15.0
  7
LEROY
 72
     1
 11
9.5096943928019044
 21
10.346347947014671
 31
0.0
 73
     2
  0
LINE
  5
782
  8
A1-DIMENSIONS
 10
11.274320075136441
 20
15.940097947014671
 30
0.0
 11
11.274320075136441
 21
17.227160218193379
 31
0.0
  0
LINE
  5
783
  8
A1-DIMENSIONS
 10
7.0243200751364512
 20
15.565097947014671
 30
0.0
 11
7.0243200751364512
 21
17.227160218193379
 31
0.0
  0
LINE
  5
784
  8
A1-DIMENSIONS
 10
11.09432007513645
 20
17.047160218193358
 30
0.0
 11
9.3715545412624834
 21
17.047160218193358
 31
0.0
  0
LINE
  5
785
  8
A1-DIMENSIONS
 10
7.20432007513645
 20
17.047160218193358
 30
0.0
 11
8.9270856090104171
 21
17.047160218193358
 31
0.0
  0
SOLID
  5
786
  8
A1-DIMENSIONS
 10
11.09432007513645
 20
17.077160218193381
 30
0.0
 11
11.09432007513645
 21
17.017160218193371
 31
0.0
 12
11.274320075136441
 22
17.047160218193358
 32
0.0
 13
11.274320075136441
 23
17.047160218193358
 33
0.0
  0
SOLID
  5
787
  8
A1-DIMENSIONS
 10
7.20432007513645
 20
17.077160218193381
 30
0.0
 11
7.20432007513645
 21
17.017160218193371
 31
0.0
 12
7.0243200751364512
 22
17.047160218193358
 32
0.0
 13
7.0243200751364512
 23
17.047160218193358
 33
0.0
  0
TEXT
  5
788
  8
A1-DIMENSIONS
 10
8.9707486465650224
 20
16.984660218193358
 30
0.0
 40
0.125
  1
17"
 51
15.0
  7
LEROY
 72
     1
 11
9.1493200751364512
 21
17.047160218193358
 31
0.0
 73
     2
  0
LINE
  5
789
  8
A1-DIMENSIONS
 10
27.195606638996448
 20
7.9400979470146771
 30
0.0
 11
27.195606638996448
 21
6.4148868097772471
 31
0.0
  0
LINE
  5
78A
  8
A1-DIMENSIONS
 10
27.445606638996448
 20
7.9400979470146771
 30
0.0
 11
27.445606638996448
 21
6.4148868097772471
 31
0.0
  0
LINE
  5
78B
  8
A1-DIMENSIONS
 10
27.015606638996449
 20
6.5948868097772468
 30
0.0
 11
26.83560663899646
 21
6.5948868097772468
 31
0.0
  0
LINE
  5
78C
  8
A1-DIMENSIONS
 10
27.625606638996452
 20
6.5948868097772468
 30
0.0
 11
27.805606638996451
 21
6.5948868097772468
 31
0.0
  0
SOLID
  5
78D
  8
A1-DIMENSIONS
 10
27.015606638996449
 20
6.6248868097772471
 30
0.0
 11
27.015606638996449
 21
6.5648868097772484
 31
0.0
 12
27.195606638996448
 22
6.5948868097772468
 32
0.0
 13
27.195606638996448
 23
6.5948868097772468
 33
0.0
  0
SOLID
  5
78E
  8
A1-DIMENSIONS
 10
27.625606638996452
 20
6.6248868097772471
 30
0.0
 11
27.625606638996452
 21
6.5648868097772484
 31
0.0
 12
27.445606638996448
 22
6.5948868097772468
 32
0.0
 13
27.445606638996448
 23
6.5948868097772468
 33
0.0
  0
TEXT
  5
78F
  8
A1-DIMENSIONS
 10
27.855805844475778
 20
6.5323868097772468
 30
0.0
 40
0.125
  1
1" REF
 51
15.0
  7
LEROY
 72
     1
 11
28.21294870161864
 21
6.5948868097772468
 31
0.0
 73
     2
  0
ENDSEC
  0
EOF
