  0
SECTION
  2
HEADER
  9
$ACADVER
  1
AC1009
  9
$INSBASE
 10
0.0
 20
0.0
 30
0.0
  9
$EXTMIN
 10
-0.0010370039006773
 20
-0.0006710025239585
 30
-0.0000000000000053
  9
$EXTMAX
 10
34.001037914325209
 20
22.000671591622218
 30
0.0000000000000099
  9
$LIMMIN
 10
0.0
 20
0.0
  9
$LIMMAX
 10
34.0
 20
22.0
  9
$ORTHOMODE
 70
     1
  9
$REGENMODE
 70
     1
  9
$FILLMODE
 70
     1
  9
$QTEXTMODE
 70
     0
  9
$MIRRTEXT
 70
     1
  9
$DRAGMODE
 70
     2
  9
$LTSCALE
 40
0.5
  9
$OSMODE
 70
     0
  9
$ATTMODE
 70
     1
  9
$TEXTSIZE
 40
0.25
  9
$TRACEWID
 40
0.05
  9
$TEXTSTYLE
  7
LEROY
  9
$CLAYER
  8
A1-DIMENSIONS
  9
$CELTYPE
  6
BYLAYER
  9
$CECOLOR
 62
   256
  9
$DIMSCALE
 40
1.0
  9
$DIMASZ
 40
0.12
  9
$DIMEXO
 40
0.05
  9
$DIMDLI
 40
0.5
  9
$DIMRND
 40
0.0
  9
$DIMDLE
 40
0.0
  9
$DIMEXE
 40
0.1
  9
$DIMTP
 40
0.1
  9
$DIMTM
 40
0.1
  9
$DIMTXT
 40
0.12
  9
$DIMCEN
 40
0.0
  9
$DIMTSZ
 40
0.0
  9
$DIMTOL
 70
     0
  9
$DIMLIM
 70
     0
  9
$DIMTIH
 70
     1
  9
$DIMTOH
 70
     1
  9
$DIMSE1
 70
     0
  9
$DIMSE2
 70
     0
  9
$DIMTAD
 70
     0
  9
$DIMZIN
 70
     7
  9
$DIMBLK
  1

  9
$DIMASO
 70
     1
  9
$DIMSHO
 70
     1
  9
$DIMPOST
  1

  9
$DIMAPOST
  1
mm
  9
$DIMALT
 70
     0
  9
$DIMALTD
 70
     2
  9
$DIMALTF
 40
25.399999999999999
  9
$DIMLFAC
 40
1.0
  9
$DIMTOFL
 70
     0
  9
$DIMTVP
 40
0.0
  9
$DIMTIX
 70
     0
  9
$DIMSOXD
 70
     0
  9
$DIMSAH
 70
     0
  9
$DIMBLK1
  1

  9
$DIMBLK2
  1

  9
$DIMSTYLE
  2
AM_ANSI
  9
$DIMCLRD
 70
   256
  9
$DIMCLRE
 70
   256
  9
$DIMCLRT
 70
     2
  9
$DIMTFAC
 40
0.71
  9
$DIMGAP
 40
0.06
  9
$LUNITS
 70
     2
  9
$LUPREC
 70
     2
  9
$SKETCHINC
 40
0.1
  9
$FILLETRAD
 40
0.0
  9
$AUNITS
 70
     0
  9
$AUPREC
 70
     0
  9
$MENU
  1
acad
  9
$ELEVATION
 40
0.0
  9
$PELEVATION
 40
0.0
  9
$THICKNESS
 40
0.0
  9
$LIMCHECK
 70
     0
  9
$BLIPMODE
 70
     0
  9
$CHAMFERA
 40
0.0
  9
$CHAMFERB
 40
0.0
  9
$SKPOLY
 70
     0
  9
$TDCREATE
 40
2448688.4881464122
  9
$TDUPDATE
 40
2456955.3819662039
  9
$TDINDWG
 40
0.156762662
  9
$TDUSRTIMER
 40
0.1567624769
  9
$USRTIMER
 70
     1
  9
$ANGBASE
 50
0.0
  9
$ANGDIR
 70
     0
  9
$PDMODE
 70
     0
  9
$PDSIZE
 40
0.0
  9
$PLINEWID
 40
0.0
  9
$COORDS
 70
     0
  9
$SPLFRAME
 70
     0
  9
$SPLINETYPE
 70
     6
  9
$SPLINESEGS
 70
     8
  9
$ATTDIA
 70
     1
  9
$ATTREQ
 70
     1
  9
$HANDLING
 70
     1
  9
$HANDSEED
  5
6F5
  9
$SURFTAB1
 70
     6
  9
$SURFTAB2
 70
     6
  9
$SURFTYPE
 70
     6
  9
$SURFU
 70
     6
  9
$SURFV
 70
     6
  9
$UCSNAME
  2

  9
$UCSORG
 10
0.0
 20
0.0
 30
0.0
  9
$UCSXDIR
 10
1.0
 20
0.0
 30
0.0
  9
$UCSYDIR
 10
0.0
 20
1.0
 30
0.0
  9
$PUCSNAME
  2

  9
$PUCSORG
 10
0.0
 20
0.0
 30
0.0
  9
$PUCSXDIR
 10
1.0
 20
0.0
 30
0.0
  9
$PUCSYDIR
 10
0.0
 20
1.0
 30
0.0
  9
$USERI1
 70
     0
  9
$USERI2
 70
     0
  9
$USERI3
 70
     0
  9
$USERI4
 70
     0
  9
$USERI5
 70
     0
  9
$USERR1
 40
0.0
  9
$USERR2
 40
0.0
  9
$USERR3
 40
0.0
  9
$USERR4
 40
0.0
  9
$USERR5
 40
0.0
  9
$WORLDVIEW
 70
     1
  9
$SHADEDGE
 70
     3
  9
$SHADEDIF
 70
    70
  9
$TILEMODE
 70
     1
  9
$MAXACTVP
 70
    16
  9
$PLIMCHECK
 70
     0
  9
$PEXTMIN
 10
1.0000000000000000E+020
 20
1.0000000000000000E+020
 30
1.0000000000000000E+020
  9
$PEXTMAX
 10
-1.0000000000000000E+020
 20
-1.0000000000000000E+020
 30
-1.0000000000000000E+020
  9
$PLIMMIN
 10
0.0
 20
0.0
  9
$PLIMMAX
 10
12.0
 20
9.0
  9
$UNITMODE
 70
     0
  9
$VISRETAIN
 70
     0
  9
$PLINEGEN
 70
     0
  9
$PSLTSCALE
 70
     0
  0
ENDSEC
  0
SECTION
  2
TABLES
  0
TABLE
  2
VPORT
 70
     1
  0
VPORT
  2
*ACTIVE
 70
     0
 10
0.0
 20
0.0
 11
1.0
 21
1.0
 12
1.7305086116081441
 22
-0.772776349398468
 13
0.0
 23
0.0
 14
0.125
 24
0.125
 15
0.0
 25
0.0
 16
0.0
 26
0.0
 36
1.0
 17
17.575522709590601
 27
10.99916094590049
 37
0.0
 40
24.862139111457161
 41
1.8397590361445779
 42
50.0
 43
0.0
 44
0.0
 50
0.0
 51
0.0
 71
     0
 72
   100
 73
     1
 74
     0
 75
     0
 76
     0
 77
     0
 78
     0
  0
ENDTAB
  0
TABLE
  2
LTYPE
 70
    62
  0
LTYPE
  2
CONTINUOUS
 70
     0
  3
Solid line
 72
    65
 73
     0
 40
0.0
  0
LTYPE
  2
CENTER
 70
     0
  3
____ _ ____ _ ____ _ ____ _ ____ _ ____ _ ____ 
 72
    65
 73
     4
 40
2.0
 49
1.25
 49
-0.25
 49
0.25
 49
-0.25
  0
LTYPE
  2
HIDDEN2
 70
     0
  3
_ _ _ _ _ _ _ _ _ _ _ _ _ _ _ _ _ _ _ _ _ _ _ _
 72
    65
 73
     2
 40
0.1875
 49
0.125
 49
-0.0625
  0
LTYPE
  2
PHANTOM2
 70
     0
  3
___ _ _ ___ _ _ ___ _ _ ___ _ _ ___ _ _ ___ _ _
 72
    65
 73
     6
 40
1.25
 49
0.625
 49
-0.125
 49
0.125
 49
-0.125
 49
0.125
 49
-0.125
  0
LTYPE
  2
BORDER
 70
     0
  3
__ __ . __ __ . __ __ . __ __ . __ __ . __ __ .
 72
    65
 73
     6
 40
1.75
 49
0.5
 49
-0.25
 49
0.5
 49
-0.25
 49
0.0
 49
-0.25
  0
LTYPE
  2
BORDER2
 70
     0
  3
__.__.__.__.__.__.__.__.__.__.__.__.__.__.__.__
 72
    65
 73
     6
 40
0.875
 49
0.25
 49
-0.125
 49
0.25
 49
-0.125
 49
0.0
 49
-0.125
  0
LTYPE
  2
BORDERX2
 70
     0
  3
____  ____  .  ____  ____  .  ____  ____  .  __
 72
    65
 73
     6
 40
3.5
 49
1.0
 49
-0.5
 49
1.0
 49
-0.5
 49
0.0
 49
-0.5
  0
LTYPE
  2
CENTER2
 70
     0
  3
___ _ ___ _ ___ _ ___ _ ___ _ ___ _ ___ _ ___ _
 72
    65
 73
     4
 40
1.125
 49
0.75
 49
-0.125
 49
0.125
 49
-0.125
  0
LTYPE
  2
CENTERX2
 70
     0
  3
________  __  ________  __  ________  __  _____
 72
    65
 73
     4
 40
4.0
 49
2.5
 49
-0.5
 49
0.5
 49
-0.5
  0
LTYPE
  2
DASHDOT
 70
     0
  3
__ . __ . __ . __ . __ . __ . __ . __ . __ . __
 72
    65
 73
     4
 40
1.0
 49
0.5
 49
-0.25
 49
0.0
 49
-0.25
  0
LTYPE
  2
DASHDOT2
 70
     0
  3
_._._._._._._._._._._._._._._._._._._._._._._._
 72
    65
 73
     4
 40
0.5
 49
0.25
 49
-0.125
 49
0.0
 49
-0.125
  0
LTYPE
  2
DASHDOTX2
 70
     0
  3
____  .  ____  .  ____  .  ____  .  ____  .  __
 72
    65
 73
     4
 40
2.0
 49
1.0
 49
-0.5
 49
0.0
 49
-0.5
  0
LTYPE
  2
DASHED
 70
     0
  3
__ __ __ __ __ __ __ __ __ __ __ __ __ __ __ __
 72
    65
 73
     2
 40
0.75
 49
0.5
 49
-0.25
  0
LTYPE
  2
DASHED2
 70
     0
  3
_ _ _ _ _ _ _ _ _ _ _ _ _ _ _ _ _ _ _ _ _ _ _ _
 72
    65
 73
     2
 40
0.375
 49
0.25
 49
-0.125
  0
LTYPE
  2
DASHEDX2
 70
     0
  3
____  ____  ____  ____  ____  ____  ____  ____ 
 72
    65
 73
     2
 40
1.5
 49
1.0
 49
-0.5
  0
LTYPE
  2
DIVIDE
 70
     0
  3
____ . . ____ . . ____ . . ____ . . ____ . . __
 72
    65
 73
     6
 40
1.25
 49
0.5
 49
-0.25
 49
0.0
 49
-0.25
 49
0.0
 49
-0.25
  0
LTYPE
  2
DIVIDE2
 70
     0
  3
__..__..__..__..__..__..__..__..__..__..__..__.
 72
    65
 73
     6
 40
0.625
 49
0.25
 49
-0.125
 49
0.0
 49
-0.125
 49
0.0
 49
-0.125
  0
LTYPE
  2
DIVIDEX2
 70
     0
  3
________  .  .  ________  .  .  ________  .  . 
 72
    65
 73
     6
 40
2.5
 49
1.0
 49
-0.5
 49
0.0
 49
-0.5
 49
0.0
 49
-0.5
  0
LTYPE
  2
DOT
 70
     0
  3
. . . . . . . . . . . . . . . . . . . . . . . .
 72
    65
 73
     2
 40
0.25
 49
0.0
 49
-0.25
  0
LTYPE
  2
DOT2
 70
     0
  3
...............................................
 72
    65
 73
     2
 40
0.125
 49
0.0
 49
-0.125
  0
LTYPE
  2
DOTX2
 70
     0
  3
.  .  .  .  .  .  .  .  .  .  .  .  .  .  .  . 
 72
    65
 73
     2
 40
0.5
 49
0.0
 49
-0.5
  0
LTYPE
  2
HIDDEN
 70
     0
  3
__ __ __ __ __ __ __ __ __ __ __ __ __ __ __ __
 72
    65
 73
     2
 40
0.375
 49
0.25
 49
-0.125
  0
LTYPE
  2
HIDDENX2
 70
     0
  3
____ ____ ____ ____ ____ ____ ____ ____ ____ __
 72
    65
 73
     2
 40
0.75
 49
0.5
 49
-0.25
  0
LTYPE
  2
PHANTOM
 70
     0
  3
______  __  __  ______  __  __  ______  __  __ 
 72
    65
 73
     6
 40
2.5
 49
1.25
 49
-0.25
 49
0.25
 49
-0.25
 49
0.25
 49
-0.25
  0
LTYPE
  2
PHANTOMX2
 70
     0
  3
____________    ____    ____    ____________   
 72
    65
 73
     6
 40
5.0
 49
2.5
 49
-0.5
 49
0.5
 49
-0.5
 49
0.5
 49
-0.5
  0
LTYPE
  2
MOHAWK$0$BORDER
 70
     0
  3
__ __ . __ __ . __ __ . __ __ . __ __ . __ __ .
 72
    65
 73
     6
 40
1.75
 49
0.5
 49
-0.25
 49
0.5
 49
-0.25
 49
0.0
 49
-0.25
  0
LTYPE
  2
MOHAWK$0$BORDER2
 70
     0
  3
__.__.__.__.__.__.__.__.__.__.__.__.__.__.__.__
 72
    65
 73
     6
 40
0.875
 49
0.25
 49
-0.125
 49
0.25
 49
-0.125
 49
0.0
 49
-0.125
  0
LTYPE
  2
MOHAWK$0$BORDERX2
 70
     0
  3
____  ____  .  ____  ____  .  ____  ____  .  __
 72
    65
 73
     6
 40
3.5
 49
1.0
 49
-0.5
 49
1.0
 49
-0.5
 49
0.0
 49
-0.5
  0
LTYPE
  2
MOHAWK$0$CENTER
 70
     0
  3
____ _ ____ _ ____ _ ____ _ ____ _ ____ _ ____ 
 72
    65
 73
     4
 40
2.0
 49
1.25
 49
-0.25
 49
0.25
 49
-0.25
  0
LTYPE
  2
MOHAWK$0$CENTER2
 70
     0
  3
___ _ ___ _ ___ _ ___ _ ___ _ ___ _ ___ _ ___ _
 72
    65
 73
     4
 40
1.125
 49
0.75
 49
-0.125
 49
0.125
 49
-0.125
  0
LTYPE
  2
MOHAWK$0$CENTERX2
 70
     0
  3
________  __  ________  __  ________  __  _____
 72
    65
 73
     4
 40
4.0
 49
2.5
 49
-0.5
 49
0.5
 49
-0.5
  0
LTYPE
  2
MOHAWK$0$DASHDOT
 70
     0
  3
__ . __ . __ . __ . __ . __ . __ . __ . __ . __
 72
    65
 73
     4
 40
1.0
 49
0.5
 49
-0.25
 49
0.0
 49
-0.25
  0
LTYPE
  2
MOHAWK$0$DASHDOT2
 70
     0
  3
_._._._._._._._._._._._._._._._._._._._._._._._
 72
    65
 73
     4
 40
0.5
 49
0.25
 49
-0.125
 49
0.0
 49
-0.125
  0
LTYPE
  2
MOHAWK$0$DASHDOTX2
 70
     0
  3
____  .  ____  .  ____  .  ____  .  ____  .  __
 72
    65
 73
     4
 40
2.0
 49
1.0
 49
-0.5
 49
0.0
 49
-0.5
  0
LTYPE
  2
MOHAWK$0$DASHED
 70
     0
  3
__ __ __ __ __ __ __ __ __ __ __ __ __ __ __ __
 72
    65
 73
     2
 40
0.75
 49
0.5
 49
-0.25
  0
LTYPE
  2
MOHAWK$0$DASHED2
 70
     0
  3
_ _ _ _ _ _ _ _ _ _ _ _ _ _ _ _ _ _ _ _ _ _ _ _
 72
    65
 73
     2
 40
0.375
 49
0.25
 49
-0.125
  0
LTYPE
  2
MOHAWK$0$DASHEDX2
 70
     0
  3
____  ____  ____  ____  ____  ____  ____  ____ 
 72
    65
 73
     2
 40
1.5
 49
1.0
 49
-0.5
  0
LTYPE
  2
MOHAWK$0$DIVIDE
 70
     0
  3
____ . . ____ . . ____ . . ____ . . ____ . . __
 72
    65
 73
     6
 40
1.25
 49
0.5
 49
-0.25
 49
0.0
 49
-0.25
 49
0.0
 49
-0.25
  0
LTYPE
  2
MOHAWK$0$DIVIDE2
 70
     0
  3
__..__..__..__..__..__..__..__..__..__..__..__.
 72
    65
 73
     6
 40
0.625
 49
0.25
 49
-0.125
 49
0.0
 49
-0.125
 49
0.0
 49
-0.125
  0
LTYPE
  2
MOHAWK$0$DIVIDEX2
 70
     0
  3
________  .  .  ________  .  .  ________  .  . 
 72
    65
 73
     6
 40
2.5
 49
1.0
 49
-0.5
 49
0.0
 49
-0.5
 49
0.0
 49
-0.5
  0
LTYPE
  2
MOHAWK$0$DOT
 70
     0
  3
. . . . . . . . . . . . . . . . . . . . . . . .
 72
    65
 73
     2
 40
0.25
 49
0.0
 49
-0.25
  0
LTYPE
  2
MOHAWK$0$DOT2
 70
     0
  3
...............................................
 72
    65
 73
     2
 40
0.125
 49
0.0
 49
-0.125
  0
LTYPE
  2
MOHAWK$0$DOTX2
 70
     0
  3
.  .  .  .  .  .  .  .  .  .  .  .  .  .  .  . 
 72
    65
 73
     2
 40
0.5
 49
0.0
 49
-0.5
  0
LTYPE
  2
MOHAWK$0$HIDDEN
 70
     0
  3
__ __ __ __ __ __ __ __ __ __ __ __ __ __ __ __
 72
    65
 73
     2
 40
0.375
 49
0.25
 49
-0.125
  0
LTYPE
  2
MOHAWK$0$HIDDEN2
 70
     0
  3
_ _ _ _ _ _ _ _ _ _ _ _ _ _ _ _ _ _ _ _ _ _ _ _
 72
    65
 73
     2
 40
0.1875
 49
0.125
 49
-0.0625
  0
LTYPE
  2
MOHAWK$0$HIDDENX2
 70
     0
  3
____ ____ ____ ____ ____ ____ ____ ____ ____ __
 72
    65
 73
     2
 40
0.75
 49
0.5
 49
-0.25
  0
LTYPE
  2
MOHAWK$0$PHANTOM
 70
     0
  3
______  __  __  ______  __  __  ______  __  __ 
 72
    65
 73
     6
 40
2.5
 49
1.25
 49
-0.25
 49
0.25
 49
-0.25
 49
0.25
 49
-0.25
  0
LTYPE
  2
MOHAWK$0$PHANTOM2
 70
     0
  3
___ _ _ ___ _ _ ___ _ _ ___ _ _ ___ _ _ ___ _ _
 72
    65
 73
     6
 40
1.25
 49
0.625
 49
-0.125
 49
0.125
 49
-0.125
 49
0.125
 49
-0.125
  0
LTYPE
  2
MOHAWK$0$PHANTOMX2
 70
     0
  3
____________    ____    ____    ____________   
 72
    65
 73
     6
 40
5.0
 49
2.5
 49
-0.5
 49
0.5
 49
-0.5
 49
0.5
 49
-0.5
  0
LTYPE
  2
ASULTYPE
 70
     0
  3
Solid line
 72
    65
 73
     2
 40
3.0
 49
2.5
 49
0.5
  0
LTYPE
  2
ASVLTYPE
 70
     0
  3
__ __ __ __ __ __ __ __ __ __ __ __ __ __ __ __ __ __ __ __ __
 72
    65
 73
     2
 40
0.75
 49
0.5
 49
-0.25
  0
LTYPE
  2
AM_ISO02W050
 70
     0
  3
__ __ __ __ __ __ __ __ __ __ __ __ __ __ __
 72
    65
 73
     2
 40
7.5
 49
6.0
 49
-1.5
  0
LTYPE
  2
AM_ISO08W050
 70
     0
  3
____ . ____ . ____ . ____ . ____ . ____ . ____
 72
    65
 73
     4
 40
18.0
 49
12.0
 49
-1.5
 49
3.0
 49
-1.5
  0
LTYPE
  2
AM_ISO09W050
 70
     0
  3
_____ . . _____ . . _____ . . ____ .. ____
 72
    65
 73
     6
 40
22.5
 49
12.0
 49
-1.5
 49
3.0
 49
-1.5
 49
3.0
 49
-1.5
  0
LTYPE
  2
AMCONSTR
 70
     0
  3
_______________________
 72
    65
 73
     2
 40
9999.0
 49
9999.0
 49
0.0
  0
LTYPE
  2
AM_ISO08W050X2
 70
     0
  3
__ . __ . __ . __ . __ . __
 72
    65
 73
     4
 40
9.0
 49
6.0
 49
-0.75
 49
1.5
 49
-0.75
  0
LTYPE
  2
AM_ISO02W050X2
 70
     0
  3
 _ _ _ _ _ _ _ _ _ _ _ _
 72
    65
 73
     2
 40
3.75
 49
3.0
 49
-0.75
  0
LTYPE
  2
AMZIGZAG
 70
     0
  3
/\/-/\/-/\/-/\/-/\/-/\/
 72
    65
 73
     2
 40
11.0001
 49
0.0001
 49
-11.0
  0
LTYPE
  2
AMZIGZAG2
 70
     0
  3
/\/-/\/-/\/-/\/-/\/-/\/
 72
    65
 73
     2
 40
0.4401
 49
0.0001
 49
-0.4400000000000001
  0
LTYPE
  2
ACANSTGB
 70
     0
  3
__ . . __ . .
 72
    65
 73
     6
 40
0.35433070866
 49
0.15748031496
 49
-0.03937007874
 49
0.03937007874
 49
-0.03937007874
 49
0.03937007874
 49
-0.03937007874
  0
LTYPE
  2
ACANSTGL
 70
     0
  3
_ _ _ _ _
 72
    65
 73
     2
 40
0.11811023622
 49
0.07874015748
 49
-0.03937007874
  0
ENDTAB
  0
TABLE
  2
LAYER
 70
     8
  0
LAYER
  2
0
 70
     0
 62
     7
  6
CONTINUOUS
  0
LAYER
  2
A1-DIMENSIONS
 70
     0
 62
     1
  6
CONTINUOUS
  0
LAYER
  2
A1-BORDER-LABELS
 70
     0
 62
     6
  6
CONTINUOUS
  0
LAYER
  2
A-LINE-CENTER
 70
     0
 62
     5
  6
CENTER
  0
LAYER
  2
A-LINE-HIDDEN
 70
     0
 62
     3
  6
HIDDEN
  0
LAYER
  2
A1-NOTES
 70
     0
 62
     4
  6
CONTINUOUS
  0
LAYER
  2
A-LINE-OBJECT
 70
     0
 62
     7
  6
CONTINUOUS
  0
LAYER
  2
DS$0$ASHADE
 70
     0
 62
     7
  6
CONTINUOUS
  0
ENDTAB
  0
TABLE
  2
STYLE
 70
    17
  0
STYLE
  2
STANDARD
 70
     0
 40
0.0
 41
1.0
 50
0.0
 71
     0
 42
0.2
  3
txt
  4

  0
STYLE
  2
ANNOTATIVE
 70
     0
 40
0.0
 41
1.0
 50
0.0
 71
     0
 42
0.2
  3
txt
  4

  0
STYLE
  2
LEROY
 70
     0
 40
0.25
 41
1.0
 50
15.0
 71
     0
 42
0.25
  3
ROMAND
  4

  0
STYLE
  2
DS$0$STANDARD
 70
     0
 40
0.0
 41
1.0
 50
0.0
 71
     0
 42
0.125
  3
ROMANT
  4

  0
STYLE
  2
DS$0$ASHADE
 70
     0
 40
0.2
 41
1.0
 50
0.0
 71
     0
 42
0.125
  3
simplex
  4

  0
STYLE
  2
MOHAWK$0$STANDARD
 70
     0
 40
0.09375
 41
1.0
 50
0.0
 71
     0
 42
0.09375
  3
ROMANT
  4

  0
STYLE
  2
MOHAWK$0$LEROY
 70
     0
 40
0.125
 41
1.0
 50
15.0
 71
     0
 42
0.125
  3
ROMAND
  4

  0
STYLE
  2
MOHAWK$0$MOHAWK
 70
     0
 40
0.25
 41
1.0
 50
0.0
 71
     0
 42
0.25
  3
ROMANT
  4

  0
STYLE
  2
MOHAWK$0$STANDARD2
 70
     0
 40
0.25
 41
0.8
 50
0.0
 71
     0
 42
0.25
  3
SASB____.PFB
  4

  0
STYLE
  2
CONF$0$STANDARD
 70
     0
 40
0.0
 41
1.0
 50
0.0
 71
     0
 42
0.2
  3
txt
  4

  0
STYLE
  2
CONF$0$LEROY
 70
     0
 40
0.125
 41
1.0
 50
15.0
 71
     0
 42
0.125
  3
ROMAND
  4

  0
STYLE
  2
CONF$0$LEROY2
 70
     0
 40
0.011
 41
1.0
 50
0.0
 71
     0
 42
0.0625
  3
ROMAND
  4

  0
STYLE
  2
REV$0$STANDARD
 70
     0
 40
0.09375
 41
1.0
 50
0.0
 71
     0
 42
0.09375
  3
ROMANT
  4

  0
STYLE
  2
LABEL
 70
     0
 40
0.25
 41
1.0
 50
0.0
 71
     0
 42
0.25
  3
txt
  4

  0
STYLE
  2

 70
     1
 40
0.0
 41
1.0
 50
0.0
 71
     0
 42
0.25
  3
genltshp.shx
  4

  0
STYLE
  2
ACANSTS
 70
     0
 40
1.0
 41
1.0
 50
0.0
 71
     0
 42
0.25
  3
romans.shx
  4

  0
STYLE
  2
ACANSGDT
 70
     0
 40
0.0
 41
1.0
 50
0.0
 71
     0
 42
0.25
  3
amgdt.shx
  4

  0
ENDTAB
  0
TABLE
  2
VIEW
 70
     0
  0
ENDTAB
  0
TABLE
  2
UCS
 70
     0
  0
ENDTAB
  0
TABLE
  2
APPID
 70
    18
  0
APPID
  2
ACAD
 70
     0
  0
APPID
  2
ACADANNOTATIVE
 70
     0
  0
APPID
  2
ACAD_MLEADERVER
 70
     0
  0
APPID
  2
AVE_RENDER
 70
     0
  0
APPID
  2
AVE_FINISH
 70
     0
  0
APPID
  2
GENIUS_GENDIM_13
 70
     0
  0
APPID
  2
GENIUS_GENDTOL_13
 70
     0
  0
APPID
  2
GENIUS_GE3DTOL_13
 70
     0
  0
APPID
  2
MCAD_NO_VIS
 70
     0
  0
APPID
  2
ACAD_TEMP_GRAPHIC
 70
     0
  0
APPID
  2
AD_DRAW
 70
     0
  0
APPID
  2
ACATTRIBSERVICES
 70
     0
  0
APPID
  2
ASURF_PCURVE_APPNAME
 70
     0
  0
APPID
  2
AMG_3D2D_5_0
 70
     0
  0
APPID
  2
DESIGNERASSEMBLIES
 70
     0
  0
APPID
  2
ACADM_DIM_EDIT
 70
     0
  0
APPID
  2
AMDT_DM_ADJ
 70
     0
  0
APPID
  2
ACAD_EXEMPT_FROM_CAD_STANDARDS
 70
     0
  0
ENDTAB
  0
TABLE
  2
DIMSTYLE
 70
    13
  0
DIMSTYLE
  2
STANDARD
 70
     0
  3

  4

  5

  6

  7

 40
1.0
 41
0.18
 42
0.0625
 43
0.38
 44
0.18
 45
0.0
 46
0.0
 47
0.0
 48
0.0
140
0.18
141
0.09
142
0.0
143
25.399999999999999
144
1.0
145
0.0
146
1.0
147
0.09
 71
     0
 72
     0
 73
     1
 74
     1
 75
     0
 76
     0
 77
     0
 78
     0
170
     0
171
     2
172
     0
173
     0
174
     0
175
     0
176
     0
177
     0
178
     0
  0
DIMSTYLE
  2
ANNOTATIVE
 70
     0
  3

  4

  5

  6

  7

 40
1.0
 41
0.18
 42
0.0625
 43
0.38
 44
0.18
 45
0.0
 46
0.0
 47
0.0
 48
0.0
140
0.18
141
0.09
142
0.0
143
25.399999999999999
144
1.0
145
0.0
146
1.0
147
0.09
 71
     0
 72
     0
 73
     1
 74
     1
 75
     0
 76
     0
 77
     0
 78
     0
170
     0
171
     2
172
     0
173
     0
174
     0
175
     0
176
     0
177
     0
178
     0
  0
DIMSTYLE
  2
DDIMS
 70
     0
  3

  4

  5

  6

  7

 40
1.0
 41
0.18
 42
0.125
 43
0.38
 44
0.18
 45
0.0
 46
0.0
 47
0.0
 48
0.0
140
0.18
141
0.09
142
0.0
143
25.399999999999999
144
2.0
145
0.0
146
1.0
147
0.09
 71
     0
 72
     0
 73
     1
 74
     1
 75
     0
 76
     0
 77
     0
 78
     0
170
     0
171
     2
172
     0
173
     0
174
     0
175
     0
176
     0
177
     0
178
     0
  0
DIMSTYLE
  2
DS$0$STANDARD
 70
     0
  3

  4

  5

  6

  7

 40
1.0
 41
0.18
 42
0.0625
 43
0.38
 44
0.18
 45
0.0
 46
0.0
 47
0.0
 48
0.0
140
0.18
141
0.09
142
0.0
143
25.399999999999999
144
1.0
145
0.0
146
1.0
147
0.09
 71
     0
 72
     0
 73
     1
 74
     1
 75
     0
 76
     0
 77
     0
 78
     0
170
     0
171
     2
172
     0
173
     0
174
     0
175
     0
176
     0
177
     0
178
     0
  0
DIMSTYLE
  2
MOHAWK$0$STANDARD
 70
     0
  3

  4

  5

  6

  7

 40
1.0
 41
0.18
 42
0.0625
 43
0.38
 44
0.18
 45
0.0
 46
0.0
 47
0.0
 48
0.0
140
0.18
141
0.09
142
0.0
143
25.399999999999999
144
1.0
145
0.0
146
1.0
147
0.09
 71
     0
 72
     0
 73
     1
 74
     1
 75
     0
 76
     0
 77
     0
 78
     0
170
     0
171
     2
172
     0
173
     0
174
     0
175
     0
176
     0
177
     0
178
     0
  0
DIMSTYLE
  2
CONF$0$STANDARD
 70
     0
  3

  4

  5

  6

  7

 40
1.0
 41
0.18
 42
0.0625
 43
0.38
 44
0.18
 45
0.0
 46
0.0
 47
0.0
 48
0.0
140
0.18
141
0.09
142
0.0
143
25.399999999999999
144
1.0
145
0.0
146
1.0
147
0.09
 71
     0
 72
     0
 73
     1
 74
     1
 75
     0
 76
     0
 77
     0
 78
     0
170
     0
171
     2
172
     0
173
     0
174
     0
175
     0
176
     0
177
     0
178
     0
  0
DIMSTYLE
  2
REV$0$STANDARD
 70
     0
  3

  4

  5

  6

  7

 40
1.0
 41
0.18
 42
0.0625
 43
0.38
 44
0.18
 45
0.0
 46
0.0
 47
0.0
 48
0.0
140
0.18
141
0.09
142
0.0
143
25.399999999999999
144
1.0
145
0.0
146
1.0
147
0.09
 71
     0
 72
     0
 73
     1
 74
     1
 75
     0
 76
     0
 77
     0
 78
     0
170
     0
171
     2
172
     0
173
     0
174
     0
175
     0
176
     0
177
     0
178
     0
  0
DIMSTYLE
  2
AM_ANSI
 70
     0
  3

  4
mm
  5

  6

  7

 40
1.0
 41
0.12
 42
0.05
 43
0.5
 44
0.1
 45
0.0
 46
0.0
 47
0.1
 48
0.1
140
0.12
141
0.0
142
0.0
143
25.399999999999999
144
1.0
145
0.0
146
0.71
147
0.06
 71
     0
 72
     0
 73
     1
 74
     1
 75
     0
 76
     0
 77
     0
 78
     7
170
     0
171
     2
172
     0
173
     0
174
     0
175
     0
176
   256
177
   256
178
     2
  0
DIMSTYLE
  2
AM_ANSI$3
 70
     0
  3

  4
mm
  5

  6

  7

 40
1.0
 41
0.12
 42
0.05
 43
0.5
 44
0.1
 45
0.0
 46
0.0
 47
0.1
 48
0.1
140
0.12
141
0.0
142
0.0
143
25.399999999999999
144
1.0
145
0.0
146
0.71
147
0.06
 71
     0
 72
     0
 73
     1
 74
     1
 75
     0
 76
     0
 77
     0
 78
     7
170
     0
171
     2
172
     0
173
     0
174
     0
175
     0
176
   256
177
   256
178
     2
  0
DIMSTYLE
  2
AM_ANSI$4
 70
     0
  3

  4
mm
  5

  6

  7

 40
1.0
 41
0.12
 42
0.05
 43
0.5
 44
0.1
 45
0.0
 46
0.0
 47
0.1
 48
0.1
140
0.12
141
0.0
142
0.0
143
25.399999999999999
144
1.0
145
0.0
146
0.71
147
0.06
 71
     0
 72
     0
 73
     1
 74
     1
 75
     0
 76
     0
 77
     0
 78
     7
170
     0
171
     2
172
     0
173
     0
174
     0
175
     0
176
   256
177
   256
178
     2
  0
DIMSTYLE
  2
AM_ANSI$7
 70
     0
  3

  4
mm
  5

  6

  7

 40
1.0
 41
0.12
 42
0.05
 43
0.5
 44
0.1
 45
0.0
 46
0.0
 47
0.1
 48
0.1
140
0.12
141
0.0
142
0.0
143
25.399999999999999
144
1.0
145
0.0
146
0.71
147
0.06
 71
     0
 72
     0
 73
     1
 74
     1
 75
     0
 76
     0
 77
     0
 78
     7
170
     0
171
     2
172
     0
173
     0
174
     0
175
     0
176
   256
177
   256
178
     2
  0
DIMSTYLE
  2
AM_ANSI$SF
 70
     0
  3

  4
mm
  5

  6

  7

 40
1.0
 41
0.12
 42
0.05
 43
0.5
 44
0.1
 45
0.0
 46
0.0
 47
0.1
 48
0.1
140
0.12
141
0.0
142
0.0
143
25.399999999999999
144
1.0
145
0.0
146
0.71
147
0.06
 71
     0
 72
     0
 73
     1
 74
     1
 75
     1
 76
     1
 77
     0
 78
     7
170
     0
171
     2
172
     0
173
     0
174
     0
175
     0
176
   256
177
   256
178
     2
  0
DIMSTYLE
  2
AM_ANSI$SH
 70
     0
  3

  4
mm
  5

  6
GENAXEH
  7

 40
1.0
 41
0.12
 42
0.05
 43
0.5
 44
0.1
 45
0.0
 46
0.0
 47
0.1
 48
0.1
140
0.12
141
0.0
142
0.0
143
25.399999999999999
144
1.0
145
0.0
146
0.71
147
0.06
 71
     0
 72
     0
 73
     1
 74
     1
 75
     1
 76
     1
 77
     0
 78
     7
170
     0
171
     2
172
     0
173
     1
174
     0
175
     0
176
   256
177
   256
178
     2
  0
ENDTAB
  0
ENDSEC
  0
SECTION
  2
BLOCKS
  0
BLOCK
  8
0
  2
$MODEL_SPACE
 70
     0
 10
0.0
 20
0.0
 30
0.0
  3
$MODEL_SPACE
  1

  0
ENDBLK
  5
551
  8
0
  0
BLOCK
 67
     1
  8
0
  2
$PAPER_SPACE
 70
     0
 10
0.0
 20
0.0
 30
0.0
  3
$PAPER_SPACE
  1

  0
ENDBLK
  5
54D
 67
     1
  8
0
  0
BLOCK
  8
0
  2
LAYERS
 70
     0
 10
0.0
 20
0.0
 30
0.0
  3
LAYERS
  1

  0
ENDBLK
  5
7A
  8
0
  0
BLOCK
  8
0
 62
     7
  2
DS
 70
     0
 10
0.0
 20
0.0
 30
0.0
  3
DS
  1
DS
  0
POLYLINE
  5
3B2
  8
0
 66
     1
 10
0.0
 20
0.0
 30
0.0
 40
0.0625
 41
0.0625
  0
VERTEX
  5
3B3
  8
0
 10
0.5
 20
0.5
 30
0.0
  0
VERTEX
  5
3B4
  8
0
 10
33.5
 20
0.5
 30
0.0
  0
VERTEX
  5
3B5
  8
0
 10
33.5
 20
21.499999999999989
 30
0.0
  0
VERTEX
  5
3B6
  8
0
 10
0.5
 20
21.499999999999989
 30
0.0
  0
VERTEX
  5
3B7
  8
0
 10
0.5
 20
0.5
 30
0.0
  0
SEQEND
  5
3B8
  8
0
  0
LINE
  5
3B9
  8
0
 10
0.0
 20
0.5
 30
0.0
 11
0.0
 21
0.0
 31
0.0
  0
LINE
  5
3BA
  8
0
 10
0.0
 20
0.0
 30
0.0
 11
0.5
 21
0.0
 31
0.0
  0
LINE
  5
3BB
  8
0
 10
33.5
 20
0.0
 30
0.0
 11
34.0
 21
0.0
 31
0.0
  0
LINE
  5
3BC
  8
0
 10
34.0
 20
0.0
 30
0.0
 11
34.0
 21
0.5
 31
0.0
  0
LINE
  5
3BD
  8
0
 10
33.5
 20
22.0
 30
0.0
 11
34.0
 21
22.0
 31
0.0
  0
LINE
  5
3BE
  8
0
 10
34.0
 20
22.0
 30
0.0
 11
34.0
 21
21.499999999999989
 31
0.0
  0
LINE
  5
3BF
  8
0
 10
0.5
 20
22.0
 30
0.0
 11
0.0
 21
22.0
 31
0.0
  0
LINE
  5
3C0
  8
0
 10
0.0
 20
22.0
 30
0.0
 11
0.0
 21
21.499999999999989
 31
0.0
  0
INSERT
  5
3C1
  8
0
  2
MOHAWK
 10
33.5
 20
0.5
 30
0.0
  0
INSERT
  5
3C2
  8
0
  2
CONF
 10
13.0
 20
1.0
 30
0.0
  0
INSERT
  5
3C3
  8
0
  2
REV
 10
33.5
 20
21.499999999999989
 30
0.0
  0
TEXT
  5
3C4
  8
0
 10
0.625
 20
0.625
 30
0.0
 40
0.25
  1
D
  7
DS$0$STANDARD
  0
TEXT
  5
3C6
  8
0
 10
0.875
 20
0.625
 30
0.0
 40
0.125
  1
-SIZE
  7
DS$0$STANDARD
  0
INSERT
  5
3C7
  8
DS$0$ASHADE
 62
     1
  2
DS$0$AVE_RENDER
 10
0.0
 20
0.0
 30
0.0
1001
AVE_RENDER
1002
{
1070
     2
1000
Pref
1070
    30
1070
    20
1070
     0
1070
     0
1000

1070
    10
1070
     0
1070
    30
1040
1.0
1070
     1
1040
0.3
1040
0.7
1040
0.0
1040
10.0
1010
-1.0
1020
-1.0
1030
-1.0
1040
0.3
1070
    49
1002
}
  0
INSERT
  5
3CB
  8
DS$0$ASHADE
 62
     3
  2
DS$0$AVE_RENDER
 10
0.0
 20
0.0
 30
0.0
1001
AVE_RENDER
1002
{
1070
     0
1000
Full Opt
1070
     0
1070
     1
1070
     1
1070
     1
1070
     0
1070
     0
1070
     0
1070
     1
1070
     1
1040
0.0001
1040
0.0001
1002
}
  0
INSERT
  5
3CC
  8
DS$0$ASHADE
 62
     4
  2
DS$0$AVE_RENDER
 10
0.0
 20
0.0
 30
0.0
1001
AVE_RENDER
1002
{
1070
     0
1000
Quick Opt
1070
     0
1070
     1
1070
     1
1070
     1
1070
     0
1070
     0
1070
     1
1002
}
  0
ENDBLK
  5
2D2
  8
0
 62
     7
  0
BLOCK
  8
0
  2
MOHAWK
 70
     0
 10
17.0
 20
3.0
 30
0.0
  3
MOHAWK
  1
MOHAWK
  0
POLYLINE
  5
3D2
  8
0
 66
     1
 10
0.0
 20
0.0
 30
0.0
 40
0.03125
 41
0.03125
  0
VERTEX
  5
3D3
  8
0
 10
17.0
 20
3.0
 30
0.0
  0
VERTEX
  5
3D4
  8
0
 10
17.0
 20
4.5
 30
0.0
  0
SEQEND
  5
3D5
  8
0
  0
TEXT
  5
3D6
  8
0
 10
1.125
 20
4.3125
 30
0.0
 40
0.09375
  1
NOTES:
  7
MOHAWK$0$STANDARD
  0
TEXT
  5
3D8
  8
0
 10
1.5
 20
3.1875
 30
0.0
 40
0.09375
  1
E-70TI CODE 5.3 FLUX CORE WIRE ONLY.
  7
MOHAWK$0$STANDARD
  0
TEXT
  5
3D9
  8
0
 10
1.5
 20
3.375
 30
0.0
 40
0.09375
  1
SPECIFICATIONS TO E-70XX ELECTRODES OR
  7
MOHAWK$0$STANDARD
  0
TEXT
  5
3DA
  8
0
 10
1.25
 20
3.5625
 30
0.0
 40
0.09375
  1
3. WELDING MEDIUM SHALL CONFORM TO AWS
  7
MOHAWK$0$STANDARD
  0
TEXT
  5
3DB
  8
0
 10
12.75
 20
3.125
 30
0.0
 40
0.09375
  1
LB.
  7
MOHAWK$0$STANDARD
  0
TEXT
  5
3DC
  8
0
 10
1.25
 20
4.125
 30
0.0
 40
0.09375
  1
1. REMOVE ALL SHARP CORNERS & EDGES.
  7
MOHAWK$0$STANDARD
  0
POLYLINE
  5
3DD
  8
0
 66
     1
 10
0.0
 20
0.0
 30
0.0
 40
0.03125
 41
0.03125
  0
VERTEX
  5
3DE
  8
0
 10
5.1875
 20
4.5
 30
0.0
  0
VERTEX
  5
3DF
  8
0
 10
5.1875
 20
3.0
 30
0.0
  0
SEQEND
  5
3E0
  8
0
  0
POLYLINE
  5
3E1
  8
0
 66
     1
 10
0.0
 20
0.0
 30
0.0
 40
0.03125
 41
0.03125
  0
VERTEX
  5
3E2
  8
0
 10
1.0
 20
3.0
 30
0.0
  0
VERTEX
  5
3E3
  8
0
 10
1.0
 20
4.5
 30
0.0
  0
SEQEND
  5
3E4
  8
0
  0
TEXT
  5
3E5
  8
0
 10
6.4375
 20
3.625
 30
0.0
 40
0.09375
  1
%%P .005
  7
MOHAWK$0$STANDARD
  0
TEXT
  5
3E6
  8
0
 10
6.4375
 20
3.75
 30
0.0
 40
0.09375
  1
%%P .030
  7
MOHAWK$0$STANDARD
  0
TEXT
  5
3E7
  8
0
 10
6.4375
 20
4.0
 30
0.0
 40
0.09375
  1
%%P .030
  7
MOHAWK$0$STANDARD
  0
TEXT
  5
3E8
  8
0
 10
5.5
 20
3.625
 30
0.0
 40
0.09375
  1
0.XXX
  7
MOHAWK$0$STANDARD
  0
TEXT
  5
3E9
  8
0
 10
5.5
 20
3.75
 30
0.0
 40
0.09375
  1
0.XX
  7
MOHAWK$0$STANDARD
  0
TEXT
  5
3EA
  8
0
 10
5.375
 20
3.875
 30
0.0
 40
0.09375
  1
DECIMAL:
  7
MOHAWK$0$STANDARD
  0
TEXT
  5
3EB
  8
0
 10
5.375
 20
4.0
 30
0.0
 40
0.09375
  1
FRACTIONAL
  7
MOHAWK$0$STANDARD
  0
TEXT
  5
3EC
  8
0
 10
5.375
 20
4.125
 30
0.0
 40
0.09375
  1
ANGULAR
  7
MOHAWK$0$STANDARD
  0
TEXT
  5
3ED
  8
0
 10
5.375
 20
4.3125
 30
0.0
 40
0.09375
  1
TOLERANCES:
  7
MOHAWK$0$STANDARD
  0
POLYLINE
  5
3EE
  8
0
 66
     1
 10
0.0
 20
0.0
 30
0.0
 40
0.03125
 41
0.03125
  0
VERTEX
  5
3EF
  8
0
 10
8.875
 20
3.375
 30
0.0
  0
VERTEX
  5
3F0
  8
0
 10
8.875
 20
4.5
 30
0.0
  0
SEQEND
  5
3F1
  8
0
  0
POLYLINE
  5
3F2
  8
0
 66
     1
 10
0.0
 20
0.0
 30
0.0
 40
0.03125
 41
0.03125
  0
VERTEX
  5
3F3
  8
0
 10
7.125
 20
3.375
 30
0.0
  0
VERTEX
  5
3F4
  8
0
 10
10.625
 20
3.375
 30
0.0
  0
SEQEND
  5
3F5
  8
0
  0
LINE
  5
3F6
  8
0
 10
10.625
 20
4.125
 30
0.0
 11
7.125
 21
4.125
 31
0.0
  0
LINE
  5
3F7
  8
0
 10
7.125
 20
3.75
 30
0.0
 11
10.625
 21
3.75
 31
0.0
  0
LINE
  5
3F8
  8
0
 10
8.875
 20
3.5
 30
0.0
 11
8.875
 21
3.375
 31
0.0
  0
LINE
  5
3F9
  8
0
 10
7.125
 20
3.375
 30
0.0
 11
10.625
 21
3.375
 31
0.0
  0
TEXT
  5
3FA
  8
0
 10
8.2589285714285712
 20
3.125
 30
0.0
 40
0.09375
  1
NEXT ASSEMBLY
  7
MOHAWK$0$STANDARD
 72
     1
 11
8.875
 21
3.125
 31
0.0
  0
LINE
  5
3FB
  8
0
 10
8.875
 20
3.5
 30
0.0
 11
8.875
 21
4.5
 31
0.0
  0
POLYLINE
  5
3FC
  8
0
 66
     1
 10
0.0
 20
0.0
 30
0.0
 40
0.03125
 41
0.03125
  0
VERTEX
  5
3FD
  8
0
 10
17.0
 20
3.5
 30
0.0
  0
VERTEX
  5
3FE
  8
0
 10
10.625
 20
3.5
 30
0.0
  0
SEQEND
  5
3FF
  8
0
  0
POLYLINE
  5
400
  8
0
 66
     1
 10
0.0
 20
0.0
 30
0.0
 40
0.03125
 41
0.03125
  0
VERTEX
  5
401
  8
0
 10
17.0
 20
4.0
 30
0.0
  0
VERTEX
  5
402
  8
0
 10
10.625
 20
4.0
 30
0.0
  0
SEQEND
  5
403
  8
0
  0
POLYLINE
  5
404
  8
0
 66
     1
 10
0.0
 20
0.0
 30
0.0
 40
0.03125
 41
0.03125
  0
VERTEX
  5
405
  8
0
 10
7.125
 20
3.0
 30
0.0
  0
VERTEX
  5
406
  8
0
 10
7.125
 20
4.5
 30
0.0
  0
SEQEND
  5
407
  8
0
  0
POLYLINE
  5
408
  8
0
 66
     1
 10
0.0
 20
0.0
 30
0.0
 40
0.03125
 41
0.03125
  0
VERTEX
  5
409
  8
0
 10
16.57129570693872
 20
3.0818393075563471
 30
0.0
  0
VERTEX
  5
40A
  8
0
 10
16.75879570693872
 20
3.3943393075563471
 30
0.0
  0
VERTEX
  5
40B
  8
0
 10
16.94629570693872
 20
3.0818393075563471
 30
0.0
  0
VERTEX
  5
40C
  8
0
 10
16.57129570693872
 20
3.0818393075563471
 30
0.0
  0
VERTEX
  5
40D
  8
0
 10
16.75879570693872
 20
3.3943393075563471
 30
0.0
  0
SEQEND
  5
40E
  8
0
  0
TEXT
  5
40F
  8
0
 10
11.875
 20
3.3125
 30
0.0
 40
0.09375
  1
WEIGHT
  7
MOHAWK$0$STANDARD
  0
TEXT
  5
410
  8
0
 10
10.749999999999989
 20
3.3125
 30
0.0
 40
0.09375
  1
DATE
  7
MOHAWK$0$STANDARD
  0
TEXT
  5
411
  8
0
 10
11.875
 20
3.8125
 30
0.0
 40
0.09375
  1
APPROVED
  7
MOHAWK$0$STANDARD
  0
TEXT
  5
412
  8
0
 10
10.749999999999989
 20
3.8125
 30
0.0
 40
0.09375
  1
CHECKED
  7
MOHAWK$0$STANDARD
  0
TEXT
  5
413
  8
0
 10
10.749999999999989
 20
4.3125
 30
0.0
 40
0.09375
  1
SCALE
  7
MOHAWK$0$STANDARD
  0
TEXT
  5
414
  8
0
 10
11.875
 20
4.3125
 30
0.0
 40
0.09375
  1
DRAWN
  7
MOHAWK$0$STANDARD
  0
POLYLINE
  5
415
  8
0
 66
     1
 10
0.0
 20
0.0
 30
0.0
 40
0.03125
 41
0.03125
  0
VERTEX
  5
416
  8
0
 10
10.625
 20
3.0
 30
0.0
  0
VERTEX
  5
417
  8
0
 10
10.625
 20
4.5
 30
0.0
  0
SEQEND
  5
418
  8
0
  0
POLYLINE
  5
419
  8
0
 66
     1
 10
0.0
 20
0.0
 30
0.0
 40
0.03125
 41
0.03125
  0
VERTEX
  5
41A
  8
0
 10
11.75
 20
3.0
 30
0.0
  0
VERTEX
  5
41B
  8
0
 10
11.75
 20
4.5
 30
0.0
  0
SEQEND
  5
41C
  8
0
  0
TEXT
  5
41D
  8
0
 10
13.125
 20
3.8125
 30
0.0
 40
0.09375
  1
TITLE
  7
MOHAWK$0$STANDARD
  0
POLYLINE
  5
41E
  8
0
 66
     1
 10
0.0
 20
0.0
 30
0.0
 40
0.03125
 41
0.03125
  0
VERTEX
  5
41F
  8
0
 10
13.0
 20
3.0
 30
0.0
  0
VERTEX
  5
420
  8
0
 10
13.0
 20
4.5
 30
0.0
  0
SEQEND
  5
421
  8
0
  0
TEXT
  5
422
  8
0
 10
14.875
 20
3.3125
 30
0.0
 40
0.09375
  1
DRAWING NUMBER
  7
MOHAWK$0$STANDARD
  0
TEXT
  5
423
  8
0
 10
13.125
 20
3.3125
 30
0.0
 40
0.09375
  1
FROM
  7
MOHAWK$0$STANDARD
  0
POLYLINE
  5
424
  8
0
 66
     1
 10
0.0
 20
0.0
 30
0.0
 40
0.03125
 41
0.03125
  0
VERTEX
  5
425
  8
0
 10
14.75
 20
3.0
 30
0.0
  0
VERTEX
  5
426
  8
0
 10
14.75
 20
3.5
 30
0.0
  0
SEQEND
  5
427
  8
0
  0
POLYLINE
  5
428
  8
0
 66
     1
 10
0.0
 20
0.0
 30
0.0
 40
0.03125
 41
0.03125
  0
VERTEX
  5
429
  8
0
 10
16.5
 20
3.0
 30
0.0
  0
VERTEX
  5
42A
  8
0
 10
16.5
 20
3.5
 30
0.0
  0
SEQEND
  5
42B
  8
0
  0
TEXT
  5
42C
  8
0
 10
5.25
 20
3.3125
 30
0.0
 40
0.09375
  1
FILE NAME
  7
MOHAWK$0$STANDARD
  0
POLYLINE
  5
42D
  8
0
 66
     1
 10
0.0
 20
0.0
 30
0.0
 40
0.03125
 41
0.03125
  0
VERTEX
  5
42E
  8
0
 10
7.125
 20
3.5
 30
0.0
  0
VERTEX
  5
42F
  8
0
 10
5.1875
 20
3.5
 30
0.0
  0
SEQEND
  5
430
  8
0
  0
POLYLINE
  5
431
  8
0
 66
     1
 10
0.0
 20
0.0
 30
0.0
 40
0.03125
 41
0.03125
  0
VERTEX
  5
432
  8
0
 10
1.0
 20
4.5
 30
0.0
  0
VERTEX
  5
433
  8
0
 10
17.0
 20
4.5
 30
0.0
  0
SEQEND
  5
434
  8
0
  0
POLYLINE
  5
435
  8
0
 66
     1
 10
0.0
 20
0.0
 30
0.0
 40
0.03125
 41
0.03125
  0
VERTEX
  5
436
  8
0
 10
17.0
 20
3.0
 30
0.0
  0
VERTEX
  5
437
  8
0
 10
1.0
 20
3.0
 30
0.0
  0
SEQEND
  5
438
  8
0
  0
TEXT
  5
439
  8
0
 10
6.4375
 20
4.125
 30
0.0
 40
0.09375
  1
%%P 1
  7
MOHAWK$0$STANDARD
  0
CIRCLE
  5
43A
  8
0
 10
6.76960531996626
 20
4.1972447518704987
 30
0.0
 40
0.0244051144589954
  0
TEXT
  5
43B
  8
0
 10
1.25
 20
3.9375
 30
0.0
 40
0.09375
  1
2. UNLESS OTHERWISE SPECIFIED, SURFACE
  7
MOHAWK$0$STANDARD
  0
TEXT
  5
43C
  8
0
 10
1.5
 20
3.75
 30
0.0
 40
0.09375
  1
FINISH TO BE 125 RMS.
  7
MOHAWK$0$STANDARD
  0
TEXT
  5
43D
  8
0
 10
13.125
 20
4.125
 30
0.0
 40
0.25
  1
MOHAWK RESOURCES LTD.
 41
0.7905009759271308
  7
MOHAWK$0$STANDARD2
 72
     5
 11
16.875
 21
4.125
 31
0.0
  0
ENDBLK
  5
30E
  8
0
  0
BLOCK
  8
0
  2
CONF
 70
     0
 10
3.0
 20
3.0
 30
0.0
  3
CONF
  1
CONF
  0
LINE
  5
45D
  8
0
 10
2.5
 20
4.0
 30
0.0
 11
7.5
 21
4.0
 31
0.0
  0
TEXT
  5
45E
  8
0
 10
2.637648809523808
 20
3.6875
 30
0.0
 40
0.15625
  1
NOTICE OF CONFIDENTIAL INFORMATION
 51
15.0
  7
CONF$0$LEROY
 72
     1
 11
5.0
 21
3.6875
 31
0.0
  0
LINE
  5
460
  8
0
 10
2.65625
 20
3.609375
 30
0.0
 11
7.34375
 21
3.609375
 31
0.0
  0
TEXT
  5
461
  8
0
 10
2.718363672171427
 20
3.267932681490751
 30
0.0
 40
0.078125
  1
INFORMATION CONTAINED HEREIN IS CONFIDENTIAL AND PROPERTY OF 
  7
CONF$0$LEROY2
  0
TEXT
  5
463
  8
0
 10
2.718363672171427
 20
3.1414445862526561
 30
0.0
 40
0.078125
  1
MOHAWK RESOURCES LTD.. WHERE DRAWING IS FURNISHED TO OTHERS
  7
CONF$0$LEROY2
  0
TEXT
  5
464
  8
0
 10
2.718363672171427
 20
3.014956491014559
 30
0.0
 40
0.078125
  1
IT SHALL BE USED SOLELY FOR PURPOSES OF INSPECTION, INSTALLATION,
  7
CONF$0$LEROY2
  0
TEXT
  5
465
  8
0
 10
2.718363672171427
 20
2.888468395776465
 30
0.0
 40
0.078125
  1
OR MAINTENANCE. THE INFORMATION SHALL NOT BE USED OR DISCLOSED
  7
CONF$0$LEROY2
  0
TEXT
  5
466
  8
0
 10
2.718363672171427
 20
2.7619803005383701
 30
0.0
 40
0.078125
  1
BY THE RECIPIENT FOR ANY OTHER PURPOSES WHATSOEVER.
  7
CONF$0$LEROY2
  0
LINE
  5
467
  8
0
 10
2.5
 20
4.0
 30
0.0
 11
2.5
 21
2.5
 31
0.0
  0
LINE
  5
468
  8
0
 10
2.5
 20
2.5
 30
0.0
 11
7.5
 21
2.5
 31
0.0
  0
LINE
  5
469
  8
0
 10
7.5
 20
2.5
 30
0.0
 11
7.5
 21
4.0
 31
0.0
  0
ENDBLK
  5
311
  8
0
  0
BLOCK
  8
0
  2
REV
 70
     0
 10
11.0
 20
5.0
 30
0.0
  3
REV
  1
REV
  0
POLYLINE
  5
46F
  8
0
 66
     1
 10
0.0
 20
0.0
 30
0.0
 40
0.03125
 41
0.03125
  0
VERTEX
  5
470
  8
0
 10
3.0625
 20
4.1875
 30
0.0
  0
VERTEX
  5
471
  8
0
 10
3.3125
 20
4.5625
 30
0.0
  0
VERTEX
  5
472
  8
0
 10
3.5625
 20
4.1875
 30
0.0
  0
VERTEX
  5
473
  8
0
 10
3.0625
 20
4.1875
 30
0.0
  0
VERTEX
  5
474
  8
0
 10
3.3125
 20
4.5625
 30
0.0
  0
SEQEND
  5
475
  8
0
  0
POLYLINE
  5
476
  8
0
 66
     1
 10
0.0
 20
0.0
 30
0.0
 40
0.03125
 41
0.03125
  0
VERTEX
  5
477
  8
0
 10
2.875
 20
4.625
 30
0.0
  0
VERTEX
  5
478
  8
0
 10
11.0
 20
4.625
 30
0.0
  0
SEQEND
  5
479
  8
0
  0
POLYLINE
  5
47A
  8
0
 66
     1
 10
0.0
 20
0.0
 30
0.0
 40
0.03125
 41
0.03125
  0
VERTEX
  5
47B
  8
0
 10
2.875
 20
5.0
 30
0.0
  0
VERTEX
  5
47C
  8
0
 10
11.0
 20
5.0
 30
0.0
  0
SEQEND
  5
47D
  8
0
  0
TEXT
  5
47E
  8
0
 10
5.6383928571428568
 20
4.75
 30
0.0
 40
0.09375
  1
DESCRIPTION
  7
REV$0$STANDARD
 72
     1
 11
6.125
 21
4.75
 31
0.0
  0
TEXT
  5
480
  8
0
 10
3.151785714285714
 20
4.75
 30
0.0
 40
0.09375
  1
REV.
  7
REV$0$STANDARD
 72
     1
 11
3.3125
 21
4.75
 31
0.0
  0
TEXT
  5
481
  8
0
 10
8.8794642857142865
 20
4.75
 30
0.0
 40
0.09375
  1
DATE
  7
REV$0$STANDARD
 72
     1
 11
9.0625
 21
4.75
 31
0.0
  0
TEXT
  5
482
  8
0
 10
9.7745535714285712
 20
4.75
 30
0.0
 40
0.09375
  1
BY
  7
REV$0$STANDARD
 72
     1
 11
9.875
 21
4.75
 31
0.0
  0
TEXT
  5
483
  8
0
 10
10.390625
 20
4.75
 30
0.0
 40
0.09375
  1
APP'D.
  7
REV$0$STANDARD
 72
     1
 11
10.625
 21
4.75
 31
0.0
  0
POLYLINE
  5
484
  8
0
 66
     1
 10
0.0
 20
0.0
 30
0.0
 40
0.03125
 41
0.03125
  0
VERTEX
  5
485
  8
0
 10
2.875
 20
4.125
 30
0.0
  0
VERTEX
  5
486
  8
0
 10
2.875
 20
5.0
 30
0.0
  0
SEQEND
  5
487
  8
0
  0
POLYLINE
  5
488
  8
0
 66
     1
 10
0.0
 20
0.0
 30
0.0
 40
0.03125
 41
0.03125
  0
VERTEX
  5
489
  8
0
 10
3.75
 20
4.125
 30
0.0
  0
VERTEX
  5
48A
  8
0
 10
3.75
 20
5.0
 30
0.0
  0
SEQEND
  5
48B
  8
0
  0
POLYLINE
  5
48C
  8
0
 66
     1
 10
0.0
 20
0.0
 30
0.0
 40
0.03125
 41
0.03125
  0
VERTEX
  5
48D
  8
0
 10
8.625
 20
5.0
 30
0.0
  0
VERTEX
  5
48E
  8
0
 10
8.625
 20
4.125
 30
0.0
  0
SEQEND
  5
48F
  8
0
  0
POLYLINE
  5
490
  8
0
 66
     1
 10
0.0
 20
0.0
 30
0.0
 40
0.03125
 41
0.03125
  0
VERTEX
  5
491
  8
0
 10
9.5
 20
4.125
 30
0.0
  0
VERTEX
  5
492
  8
0
 10
9.5
 20
5.0
 30
0.0
  0
SEQEND
  5
493
  8
0
  0
POLYLINE
  5
494
  8
0
 66
     1
 10
0.0
 20
0.0
 30
0.0
 40
0.03125
 41
0.03125
  0
VERTEX
  5
495
  8
0
 10
10.25
 20
4.125
 30
0.0
  0
VERTEX
  5
496
  8
0
 10
10.25
 20
5.0
 30
0.0
  0
SEQEND
  5
497
  8
0
  0
POLYLINE
  5
498
  8
0
 66
     1
 10
0.0
 20
0.0
 30
0.0
 40
0.03125
 41
0.03125
  0
VERTEX
  5
499
  8
0
 10
11.0
 20
4.125
 30
0.0
  0
VERTEX
  5
49A
  8
0
 10
11.0
 20
5.0
 30
0.0
  0
SEQEND
  5
49B
  8
0
  0
ENDBLK
  5
314
  8
0
  0
BLOCK
  8
DS$0$ASHADE
  2
DS$0$AVE_RENDER
 70
     0
 10
0.0
 20
0.0
 30
0.0
  3
DS$0$AVE_RENDER
  1
AVE_RENDER
  0
ENDBLK
  5
3CA
  8
0
  0
BLOCK
  8
0
  2
LAYERS2
 70
     0
 10
0.0
 20
0.0
 30
0.0
  3
LAYERS2
  1

  0
ENDBLK
  5
C1
  8
0
  0
BLOCK
  8
0
  2
DTITLE
 70
     2
 10
0.0
 20
0.0
 30
0.0
  3
DTITLE
  1

  0
ATTDEF
  5
C3
  8
A1-BORDER-LABELS
 10
-3.875
 20
0.625
 30
0.0
 40
0.125
  1

 51
15.0
  7
LEROY
  3
DRAWING TITLE
  2
DRAW-TITLE
 70
     4
  0
ATTDEF
  5
C4
  8
A1-BORDER-LABELS
 10
-0.3125
 20
0.125
 30
0.0
 40
0.125
  1

 51
15.0
  7
LEROY
  3
REVISION
  2
R
 70
     4
  0
ATTDEF
  5
C5
  8
A1-BORDER-LABELS
 10
-2.125
 20
0.125
 30
0.0
 40
0.125
  1

 51
15.0
  7
LEROY
  3
DRAWING NUMBER
  2
DRAW-NO.
 70
     4
  0
ATTDEF
  5
C6
  8
A1-BORDER-LABELS
 10
-3.875
 20
0.125
 30
0.0
 40
0.125
  1

 51
15.0
  7
LEROY
  3
DRAWING FROM
  2
FROM
 70
     4
  0
ATTDEF
  5
C7
  8
A1-BORDER-LABELS
 10
-11.625
 20
0.125
 30
0.0
 40
0.125
  1

 51
15.0
  7
LEROY
  3
FILE NAME
  2
FILE-NAME
 70
     4
  0
ATTDEF
  5
C8
  8
A1-BORDER-LABELS
 10
-6.25
 20
1.125
 30
0.0
 40
0.125
  1

 51
15.0
  7
LEROY
  3
SCALE
  2
SCALE
 70
     4
  0
ATTDEF
  5
C9
  8
A1-BORDER-LABELS
 10
-5.125
 20
0.125
 30
0.0
 40
0.125
  1

 51
15.0
  7
LEROY
  3
WEIGHT
  2
WEIGHT
 70
     4
  0
ATTDEF
  5
CA
  8
A1-BORDER-LABELS
 10
-6.25
 20
0.125
 30
0.0
 40
0.125
  1

 51
15.0
  7
LEROY
  3
DATE
  2
DATE
 70
     4
  0
ATTDEF
  5
CB
  8
A1-BORDER-LABELS
 10
-5.125
 20
1.125
 30
0.0
 40
0.125
  1

 51
15.0
  7
LEROY
  3
DRAWN BY
  2
DRAWN
 70
     4
  0
ENDBLK
  5
CC
  8
0
  0
BLOCK
  8
0
  2
NASSY
 70
     2
 10
0.0
 20
0.0
 30
0.0
  3
NASSY
  1

  0
ATTDEF
  5
CE
  8
A1-BORDER-LABELS
 10
-9.75
 20
0.5
 30
0.0
 40
0.125
  1

 51
15.0
  7
LEROY
  3
NEXT ASSEMBLY
  2
NEXT-ASSEMBLY
 70
     4
  0
ATTDEF
  5
CF
  8
A1-BORDER-LABELS
 10
-8.0
 20
0.5
 30
0.0
 40
0.125
  1

 51
15.0
  7
LEROY
  3
NEXT ASSEMBLY
  2
NEXT-ASSEMBLY
 70
     4
  0
ATTDEF
  5
D0
  8
A1-BORDER-LABELS
 10
-9.75
 20
0.875
 30
0.0
 40
0.125
  1

 51
15.0
  7
LEROY
  3
NEXT ASSEMBLY
  2
NEXT-ASSEMBLY
 70
     4
  0
ATTDEF
  5
D1
  8
A1-BORDER-LABELS
 10
-8.0
 20
0.875
 30
0.0
 40
0.125
  1

 51
15.0
  7
LEROY
  3
NEXT ASSEMBLY
  2
NEXT-ASSEMBLY
 70
     4
  0
ATTDEF
  5
D2
  8
A1-BORDER-LABELS
 10
-9.75
 20
1.25
 30
0.0
 40
0.125
  1

 51
15.0
  7
LEROY
  3
NEXT ASSEMBLY
  2
NEXT-ASSEMBLY
 70
     4
  0
ATTDEF
  5
D3
  8
A1-BORDER-LABELS
 10
-8.0
 20
1.25
 30
0.0
 40
0.125
  1

 51
15.0
  7
LEROY
  3
NEXT ASSEMBLY
  2
NEXT-ASSEMBLY
 70
     4
  0
ENDBLK
  5
D4
  8
0
  0
BLOCK
  8
0
  2
GENAXEH
 70
     0
 10
0.0
 20
0.0
 30
0.0
  3
GENAXEH
  1

  0
LINE
  5
6A9
  8
0
 10
-1.0
 20
0.0
 30
0.0
 11
1.0
 21
0.0
 31
0.0
  0
ENDBLK
  5
6AB
  8
0
  0
ENDSEC
  0
SECTION
  2
ENTITIES
  0
INSERT
  5
1C0
  8
0
  2
LAYERS
 10
0.0
 20
0.0
 30
0.0
  0
INSERT
  5
1C1
  8
0
  2
DS
 10
0.0
 20
0.0
 30
0.0
  0
INSERT
  5
1C2
  8
0
  2
LAYERS2
 10
4.25
 20
6.25
 30
0.0
 41
0.5
 42
0.5
 43
0.5
  0
LINE
  5
1C3
  8
A-LINE-OBJECT
 10
26.25
 20
5.25
 30
0.0
 11
26.25
 21
17.125
 31
0.0
  0
LINE
  5
1C4
  8
A-LINE-OBJECT
 10
26.625
 20
5.25
 30
0.0
 11
26.625
 21
17.125
 31
0.0
  0
LINE
  5
1C5
  8
A-LINE-OBJECT
 10
26.25
 20
5.25
 30
0.0
 11
26.625
 21
5.25
 31
0.0
  0
LINE
  5
1C6
  8
A-LINE-OBJECT
 10
26.25
 20
14.125
 30
0.0
 11
26.625
 21
14.125
 31
0.0
  0
LINE
  5
1C7
  8
A-LINE-OBJECT
 10
26.25
 20
17.125
 30
0.0
 11
26.625
 21
17.125
 31
0.0
  0
LINE
  5
1C8
  8
A-LINE-CENTER
 10
17.0975
 20
16.625
 30
0.0
 11
17.2775
 21
16.625
 31
0.0
  0
LINE
  5
1C9
  8
A-LINE-CENTER
 10
17.1875
 20
16.535
 30
0.0
 11
17.1875
 21
16.714999999999989
 31
0.0
  0
LINE
  5
1CA
  8
A-LINE-CENTER
 10
20.035
 20
11.875
 30
0.0
 11
20.215
 21
11.875
 31
0.0
  0
LINE
  5
1CB
  8
A-LINE-CENTER
 10
20.125
 20
11.785
 30
0.0
 11
20.125
 21
11.965
 31
0.0
  0
LINE
  5
1CC
  8
A-LINE-CENTER
 10
20.035
 20
5.75
 30
0.0
 11
20.215
 21
5.75
 31
0.0
  0
LINE
  5
1CD
  8
A-LINE-CENTER
 10
20.125
 20
5.6600000000000001
 30
0.0
 11
20.125
 21
5.8399999999999981
 31
0.0
  0
LINE
  5
1CE
  8
A-LINE-CENTER
 10
15.41
 20
5.75
 30
0.0
 11
15.59
 21
5.75
 31
0.0
  0
LINE
  5
1CF
  8
A-LINE-CENTER
 10
15.5
 20
5.6600000000000001
 30
0.0
 11
15.5
 21
5.8399999999999981
 31
0.0
  0
LINE
  5
1D0
  8
A-LINE-CENTER
 10
19.875
 20
5.75
 30
0.0
 11
15.704655740706791
 21
5.75
 31
0.0
  0
LINE
  5
1D1
  8
A-LINE-CENTER
 10
20.125
 20
6.0
 30
0.0
 11
20.125
 21
11.695251910021661
 31
0.0
  0
LINE
  5
1D2
  8
A-LINE-CENTER
 10
20.375
 20
5.75
 30
0.0
 11
21.125
 21
5.75
 31
0.0
  0
LINE
  5
1D3
  8
A-LINE-CENTER
 10
25.75
 20
5.75
 30
0.0
 11
27.125
 21
5.75
 31
0.0
  0
LINE
  5
1D4
  8
A-LINE-CENTER
 10
20.125
 20
5.5
 30
0.0
 11
20.125
 21
4.75
 31
0.0
  0
LINE
  5
1D5
  8
A-LINE-CENTER
 10
15.5
 20
5.5
 30
0.0
 11
15.5
 21
4.75
 31
0.0
  0
LINE
  5
1D6
  8
A-LINE-CENTER
 10
19.9375
 20
11.875
 30
0.0
 11
19.3125
 21
11.875
 31
0.0
  0
LINE
  5
1D7
  8
A-LINE-CENTER
 10
20.125
 20
12.0625
 30
0.0
 11
20.125
 21
12.5625
 31
0.0
  0
LINE
  5
1D8
  8
A-LINE-CENTER
 10
20.3125
 20
11.875
 30
0.0
 11
21.0625
 21
11.875
 31
0.0
  0
LINE
  5
1D9
  8
A-LINE-CENTER
 10
25.75
 20
11.875
 30
0.0
 11
27.125
 21
11.875
 31
0.0
  0
LINE
  5
1DA
  8
A-LINE-CENTER
 10
17.1875
 20
16.8125
 30
0.0
 11
17.1875
 21
17.25
 31
0.0
  0
LINE
  5
1DB
  8
A-LINE-CENTER
 10
17.375
 20
16.625
 30
0.0
 11
17.875
 21
16.625
 31
0.0
  0
LINE
  5
1DC
  8
A-LINE-CENTER
 10
17.1875
 20
16.4375
 30
0.0
 11
17.1875
 21
16.0
 31
0.0
  0
LINE
  5
1DD
  8
A-LINE-CENTER
 10
25.75
 20
16.625
 30
0.0
 11
27.125
 21
16.625
 31
0.0
  0
LINE
  5
1DE
  8
A-LINE-HIDDEN
 10
26.25
 20
16.84375
 30
0.0
 11
26.625
 21
16.84375
 31
0.0
  0
LINE
  5
1DF
  8
A-LINE-HIDDEN
 10
26.25
 20
16.40625
 30
0.0
 11
26.625
 21
16.40625
 31
0.0
  0
LINE
  5
1E0
  8
A-LINE-HIDDEN
 10
26.25
 20
12.09375
 30
0.0
 11
26.625
 21
12.09375
 31
0.0
  0
LINE
  5
1E1
  8
A-LINE-HIDDEN
 10
26.25
 20
11.65625
 30
0.0
 11
26.625
 21
11.65625
 31
0.0
  0
LINE
  5
1E2
  8
A-LINE-HIDDEN
 10
26.25
 20
5.96875
 30
0.0
 11
26.625
 21
5.96875
 31
0.0
  0
LINE
  5
1E3
  8
A-LINE-HIDDEN
 10
26.25
 20
5.53125
 30
0.0
 11
26.625
 21
5.53125
 31
0.0
  0
LINE
  5
1E4
  8
A-LINE-HIDDEN
 10
26.25
 20
12.8125
 30
0.0
 11
26.625
 21
12.8125
 31
0.0
  0
LINE
  5
1E5
  8
A-LINE-HIDDEN
 10
26.25
 20
15.68749999999998
 30
0.0
 11
26.625
 21
15.68749999999998
 31
0.0
  0
LINE
  5
1E6
  8
A-LINE-CENTER
 10
15.3125
 20
5.75
 30
0.0
 11
13.25
 21
5.75
 31
0.0
  0
LINE
  5
1E7
  8
A-LINE-CENTER
 10
11.1875
 20
5.75
 30
0.0
 11
13.25
 21
5.75
 31
0.0
  0
LINE
  5
1E8
  8
A-LINE-CENTER
 10
11.0
 20
5.5
 30
0.0
 11
11.0
 21
4.75
 31
0.0
  0
LINE
  5
1E9
  8
A-LINE-CENTER
 10
11.0
 20
5.6600000000000001
 30
0.0
 11
11.0
 21
5.8399999999999981
 31
0.0
  0
LINE
  5
1EA
  8
A-LINE-CENTER
 10
11.089999999999989
 20
5.75
 30
0.0
 11
10.909999999999989
 21
5.75
 31
0.0
  0
LINE
  5
1EB
  8
A-LINE-CENTER
 10
6.625
 20
5.75
 30
0.0
 11
10.7953442592932
 21
5.75
 31
0.0
  0
LINE
  5
1EC
  8
A-LINE-CENTER
 10
6.375
 20
5.5
 30
0.0
 11
6.375
 21
4.75
 31
0.0
  0
LINE
  5
1ED
  8
A-LINE-CENTER
 10
6.125
 20
5.75
 30
0.0
 11
5.375
 21
5.75
 31
0.0
  0
LINE
  5
1EE
  8
A-LINE-CENTER
 10
6.4649999999999981
 20
5.75
 30
0.0
 11
6.2850000000000001
 21
5.75
 31
0.0
  0
LINE
  5
1EF
  8
A-LINE-CENTER
 10
6.375
 20
5.6600000000000001
 30
0.0
 11
6.375
 21
5.8399999999999981
 31
0.0
  0
LINE
  5
1F0
  8
A-LINE-CENTER
 10
6.375
 20
6.0
 30
0.0
 11
6.375
 21
11.695251910021661
 31
0.0
  0
LINE
  5
1F1
  8
A-LINE-CENTER
 10
6.375
 20
11.785
 30
0.0
 11
6.375
 21
11.965
 31
0.0
  0
LINE
  5
1F2
  8
A-LINE-CENTER
 10
6.4649999999999981
 20
11.875
 30
0.0
 11
6.2850000000000001
 21
11.875
 31
0.0
  0
LINE
  5
1F3
  8
A-LINE-CENTER
 10
6.375
 20
12.0625
 30
0.0
 11
6.375
 21
12.5625
 31
0.0
  0
LINE
  5
1F4
  8
A-LINE-CENTER
 10
6.1875
 20
11.875
 30
0.0
 11
5.4375
 21
11.875
 31
0.0
  0
LINE
  5
1F5
  8
A-LINE-CENTER
 10
6.5625
 20
11.875
 30
0.0
 11
7.1875
 21
11.875
 31
0.0
  0
LINE
  5
1F6
  8
A-LINE-CENTER
 10
9.3125
 20
16.4375
 30
0.0
 11
9.3125
 21
16.0
 31
0.0
  0
LINE
  5
1F7
  8
A-LINE-CENTER
 10
9.125
 20
16.625
 30
0.0
 11
8.625
 21
16.625
 31
0.0
  0
LINE
  5
1F8
  8
A-LINE-CENTER
 10
9.3125
 20
16.535
 30
0.0
 11
9.3125
 21
16.714999999999989
 31
0.0
  0
LINE
  5
1F9
  8
A-LINE-CENTER
 10
9.4025000000000016
 20
16.625
 30
0.0
 11
9.2225000000000001
 21
16.625
 31
0.0
  0
LINE
  5
1FA
  8
A-LINE-CENTER
 10
9.3125
 20
16.8125
 30
0.0
 11
9.3125
 21
17.25
 31
0.0
  0
INSERT
  5
1FB
  8
A1-BORDER-LABELS
 66
     1
  2
DTITLE
 10
33.5
 20
0.5
 30
0.0
  0
ATTRIB
  5
1FC
  8
A1-BORDER-LABELS
 10
29.625
 20
1.125
 30
0.0
 40
0.125
  1
BASE PLATE (LMF)
 51
15.0
  7
LEROY
  2
DRAW-TITLE
 70
     4
  0
ATTRIB
  5
1FD
  8
A1-BORDER-LABELS
 10
33.1875
 20
0.625
 30
0.0
 40
0.125
  1
A
 51
15.0
  7
LEROY
  2
R
 70
     4
  0
ATTRIB
  5
1FE
  8
A1-BORDER-LABELS
 10
31.375
 20
0.625
 30
0.0
 40
0.125
  1
012-012-114
 51
15.0
  7
LEROY
  2
DRAW-NO.
 70
     4
  0
ATTRIB
  5
1FF
  8
A1-BORDER-LABELS
 10
29.625
 20
0.625
 30
0.0
 40
0.125
  1
600-000-041
 51
15.0
  7
LEROY
  2
FROM
 70
     4
  0
ATTRIB
  5
200
  8
A1-BORDER-LABELS
 10
21.875
 20
0.625
 30
0.0
 40
0.125
  1
D12114
 51
15.0
  7
LEROY
  2
FILE-NAME
 70
     4
  0
ATTRIB
  5
201
  8
A1-BORDER-LABELS
 10
27.25
 20
1.625
 30
0.0
 40
0.125
  1
0.5=1
 51
15.0
  7
LEROY
  2
SCALE
 70
     4
  0
ATTRIB
  5
202
  8
A1-BORDER-LABELS
 10
28.375
 20
0.625
 30
0.0
 40
0.125
  1
110.5
 51
15.0
  7
LEROY
  2
WEIGHT
 70
     4
  0
ATTRIB
  5
203
  8
A1-BORDER-LABELS
 10
27.25
 20
0.625
 30
0.0
 40
0.125
  1
3/92
 51
15.0
  7
LEROY
  2
DATE
 70
     4
  0
ATTRIB
  5
204
  8
A1-BORDER-LABELS
 10
28.375
 20
1.625
 30
0.0
 40
0.125
  1
R.V.
 51
15.0
  7
LEROY
  2
DRAWN
 70
     4
  0
SEQEND
  5
205
  8
A1-BORDER-LABELS
  0
INSERT
  5
206
  8
A1-BORDER-LABELS
 66
     1
  2
NASSY
 10
33.5
 20
0.5
 30
0.0
  0
ATTRIB
  5
207
  8
A1-BORDER-LABELS
 10
23.75
 20
1.0
 30
0.0
 40
0.125
  1
012-012-007
 51
15.0
  7
LEROY
  2
NEXT-ASSEMBLY
 70
     4
  0
ATTRIB
  5
208
  8
A1-BORDER-LABELS
 10
25.5
 20
1.0
 30
0.0
 40
0.125
  1
012-012-008
 51
15.0
  7
LEROY
  2
NEXT-ASSEMBLY
 70
     4
  0
ATTRIB
  5
209
  8
A1-BORDER-LABELS
 10
23.75
 20
1.375
 30
0.0
 40
0.125
  1
015-000-003
 51
15.0
  7
LEROY
  2
NEXT-ASSEMBLY
 70
     4
  0
ATTRIB
  5
20A
  8
A1-BORDER-LABELS
 10
25.5
 20
1.375
 30
0.0
 40
0.125
  1
015-000-004
 51
15.0
  7
LEROY
  2
NEXT-ASSEMBLY
 70
     4
  0
ATTRIB
  5
20B
  8
A1-BORDER-LABELS
 10
23.75
 20
1.75
 30
0.0
 40
0.125
  1

 51
15.0
  7
LEROY
  2
NEXT-ASSEMBLY
 70
     4
  0
ATTRIB
  5
20C
  8
A1-BORDER-LABELS
 10
25.5
 20
1.75
 30
0.0
 40
0.125
  1

 51
15.0
  7
LEROY
  2
NEXT-ASSEMBLY
 70
     4
  0
SEQEND
  5
20D
  8
A1-BORDER-LABELS
  0
TEXT
  5
20E
  8
A1-BORDER-LABELS
 10
25.75
 20
20.75
 30
0.0
 40
0.125
  1
A
 51
15.0
  7
LEROY
  0
TEXT
  5
20F
  8
A1-BORDER-LABELS
 10
26.375
 20
20.75
 30
0.0
 40
0.125
  1
DRAWING REDRAWN & REPLACED
 51
15.0
  7
LEROY
  0
TEXT
  5
210
  8
A1-BORDER-LABELS
 10
31.25
 20
20.75
 30
0.0
 40
0.125
  1
3/92
 51
15.0
  7
LEROY
  0
TEXT
  5
211
  8
A1-BORDER-LABELS
 10
32.125
 20
20.75
 30
0.0
 40
0.125
  1
R.V.
 51
15.0
  7
LEROY
  0
TEXT
  5
212
  8
A1-NOTES
 10
29.297096751290749
 20
4.927559335513493
 30
0.0
 40
0.125
  1
MATERIAL:
 51
15.0
  7
LEROY
  0
TEXT
  5
213
  8
A1-NOTES
 10
29.297096751290749
 20
4.7251783831325396
 30
0.0
 40
0.125
  1
ASTM A-36
 51
15.0
  7
LEROY
  0
TEXT
  5
214
  8
A1-NOTES
 10
29.297096751290749
 20
4.5227974307515861
 30
0.0
 40
0.125
  1
0.75 THK. PLATE
 51
15.0
  7
LEROY
  0
TEXT
  5
215
  8
A1-NOTES
 10
29.297096751290749
 20
4.3204164783706336
 30
0.0
 40
0.125
  1
29.5 x 23.75 x 0.75 THK.
 51
15.0
  7
LEROY
  0
LINE
  5
21C
  8
A1-DIMENSIONS
 10
6.0
 20
5.25
 30
0.0
 11
6.125
 21
5.25
 31
0.0
  0
LINE
  5
21D
  8
A1-DIMENSIONS
 10
5.875
 20
12.25
 30
0.0
 11
5.875
 21
12.625
 31
0.0
  0
LINE
  5
21E
  8
A1-DIMENSIONS
 10
5.875
 20
13.0
 30
0.0
 11
5.875
 21
15.5
 31
0.0
  0
LINE
  5
21F
  8
A1-DIMENSIONS
 10
5.875
 20
15.875
 30
0.0
 11
5.875
 21
16.375
 31
0.0
  0
LINE
  5
220
  8
A1-DIMENSIONS
 10
5.875
 20
16.75
 30
0.0
 11
5.875
 21
16.93113703612455
 31
0.0
  0
LINE
  5
221
  8
A1-DIMENSIONS
 10
5.875
 20
17.25
 30
0.0
 11
5.875
 21
21.0
 31
0.0
  0
LINE
  5
225
  8
A-LINE-CENTER
 10
9.5114544039553195
 20
16.625
 30
0.0
 11
9.7576451199413086
 21
16.625
 31
0.0
  0
LINE
  5
226
  8
A-LINE-CENTER
 10
16.967792376243661
 20
16.625
 30
0.0
 11
16.71516205823109
 21
16.625
 31
0.0
  0
LINE
  5
228
  8
A1-DIMENSIONS
  6
BYBLOCK
 10
5.875
 20
17.375
 30
0.0
 11
5.875
 21
20.43
 31
0.0
  0
POINT
  5
229
  8
A1-DIMENSIONS
  6
BYBLOCK
 10
5.875
 20
17.25
 30
0.0
  0
POINT
  5
22A
  8
A1-DIMENSIONS
  6
BYBLOCK
 10
17.1875
 20
16.84375
 30
0.0
  0
POINT
  5
22B
  8
A1-DIMENSIONS
  6
BYBLOCK
 10
17.1875
 20
20.249999999999989
 30
0.0
  0
LINE
  5
22D
  8
A1-DIMENSIONS
 10
7.875
 20
16.875
 30
0.0
 11
7.875
 21
17.0
 31
0.0
  0
LINE
  5
22E
  8
A-LINE-CENTER
 10
11.0
 20
6.0
 30
0.0
 11
11.0
 21
6.875
 31
0.0
  0
LINE
  5
22F
  8
A-LINE-CENTER
 10
15.5
 20
6.0
 30
0.0
 11
15.5
 21
6.875
 31
0.0
  0
LINE
  5
231
  8
A1-DIMENSIONS
 10
12.656258661089369
 20
14.86564608505936
 30
0.0
 11
13.28984313007383
 21
14.86564608505936
 31
0.0
  0
TEXT
  5
232
  8
A1-DIMENSIONS
 10
13.55587728132819
 20
14.60624494471829
 30
0.0
 40
0.125
  1
(2 PLCS)
 51
15.0
  7
LEROY
 72
     1
 11
13.99337728132819
 21
14.60624494471829
 31
0.0
  0
LINE
  5
233
  8
A1-DIMENSIONS
 10
18.035
 20
16.625
 30
0.0
 11
18.215
 21
16.625
 31
0.0
  0
LINE
  5
234
  8
A1-DIMENSIONS
 10
18.125
 20
16.535
 30
0.0
 11
18.125
 21
16.714999999999989
 31
0.0
  0
LINE
  5
235
  8
A1-DIMENSIONS
 10
8.2850000000000001
 20
16.625
 30
0.0
 11
8.4649999999999999
 21
16.625
 31
0.0
  0
LINE
  5
236
  8
A1-DIMENSIONS
 10
8.375
 20
16.535
 30
0.0
 11
8.375
 21
16.714999999999989
 31
0.0
  0
LINE
  5
237
  8
A1-DIMENSIONS
 10
10.25375
 20
13.09375
 30
0.0
 11
10.433749999999989
 21
13.09375
 31
0.0
  0
LINE
  5
238
  8
A1-DIMENSIONS
 10
10.34375
 20
13.00375
 30
0.0
 11
10.34375
 21
13.18375
 31
0.0
  0
LINE
  5
239
  8
A1-DIMENSIONS
 10
16.06625
 20
13.09375
 30
0.0
 11
16.246249999999989
 21
13.09375
 31
0.0
  0
LINE
  5
23A
  8
A1-DIMENSIONS
 10
16.15625
 20
13.00375
 30
0.0
 11
16.15625
 21
13.18375
 31
0.0
  0
LINE
  5
23B
  8
A1-DIMENSIONS
 10
12.656258661089369
 20
14.86564608505936
 30
0.0
 11
16.405728301145281
 21
12.96389569796243
 31
0.0
  0
SOLID
  5
23C
  8
A1-DIMENSIONS
 10
16.258767136096552
 20
13.072073403463699
 30
0.0
 11
16.231626321612278
 21
13.018562879366749
 31
0.0
 12
16.405728301145281
 22
12.96389569796243
 32
0.0
 13
16.405728301145281
 23
12.96389569796243
 33
0.0
  0
SOLID
  5
23D
  8
A1-DIMENSIONS
 10
18.251460386779371
 20
16.898325901265359
 30
0.0
 11
18.303268696132609
 21
16.868062076623421
 31
0.0
 12
18.3681560153818
 22
17.038618917004129
 32
0.0
 13
18.3681560153818
 23
17.038618917004129
 33
0.0
  0
LINE
  5
23E
  8
A1-DIMENSIONS
 10
18.277364541455992
 20
16.883193988944392
 30
0.0
 11
17.32323139840079
 21
15.24982392999004
 31
0.0
  0
LINE
  5
23F
  8
A1-DIMENSIONS
 10
17.32323139840079
 20
15.24982392999004
 30
0.0
 11
20.45592992736378
 21
15.24982392999004
 31
0.0
  0
TEXT
  5
240
  8
A1-DIMENSIONS
 10
20.508677961594749
 20
15.18732392999004
 30
0.0
 40
0.125
  1
1.00 RAD
 50
359.99999999999977
 51
15.0
  7
LEROY
 72
     1
 11
20.972963675880461
 21
15.24982392999004
 31
0.0
 73
     2
  0
SOLID
  5
241
  8
A1-DIMENSIONS
 10
20.35339994142501
 20
11.54457382225986
 30
0.0
 11
20.399906655735929
 21
11.582483260715239
 31
0.0
 12
20.26292498321434
 22
11.70304868442032
 32
0.0
 13
20.26292498321434
 23
11.70304868442032
 33
0.0
  0
LINE
  5
242
  8
A1-DIMENSIONS
 10
20.376653298580472
 20
11.56352854148755
 30
0.0
 11
21.113806995055889
 21
10.659199757889709
 31
0.0
  0
LINE
  5
243
  8
A1-DIMENSIONS
 10
21.113806995055889
 20
10.659199757889709
 30
0.0
 11
21.375297564548671
 21
10.65919975788972
 31
0.0
  0
TEXT
  5
244
  8
A1-DIMENSIONS
 10
21.429885703517069
 20
10.596699757889709
 30
0.0
 40
0.125
  1
0.88 DIA BURN THRU
 50
0.0000000000003892
 51
15.0
  7
LEROY
 72
     4
 11
22.46559998923135
 21
10.65919975788972
 31
0.0
  0
TEXT
  5
245
  8
A1-DIMENSIONS
 10
21.66535433070873
 20
10.37878572891765
 30
0.0
 40
0.125
  1
(TYP 8 PLCS)
 51
15.0
  7
LEROY
 72
     1
 11
22.332020997375398
 21
10.37878572891765
 31
0.0
  0
TEXT
  5
246
  8
A1-DIMENSIONS
 10
20.263474333150249
 20
14.950150695731439
 30
0.0
 40
0.125
  1
(TYP 8 PLCS)
 51
15.0
  7
LEROY
 72
     1
 11
20.930140999816921
 21
14.950150695731439
 31
0.0
  0
LINE
  5
247
  8
A1-DIMENSIONS
 10
5.75
 20
5.25
 30
0.0
 11
6.0
 21
5.25
 31
0.0
  0
TEXT
  5
249
  8
A1-DIMENSIONS
 10
21.381523530488931
 20
11.93098998355145
 30
0.0
 40
0.125
  1
(TYP 8 PLCS)
 51
15.0
  7
LEROY
  0
INSERT
  5
24A
  8
0
  2
LAYERS2
 10
5.375
 20
4.75
 30
0.0
 41
0.5
 42
0.5
 43
0.5
  0
LINE
  5
24B
  8
A-LINE-OBJECT
 10
6.375
 20
5.25
 30
0.0
 11
10.9609375
 21
5.25
 31
0.0
  0
LINE
  5
24C
  8
A-LINE-OBJECT
 10
9.2936595418907757
 20
17.125
 30
0.0
 11
8.375
 21
17.125
 31
0.0
  0
LINE
  5
24D
  8
A-LINE-OBJECT
 10
5.875
 20
11.91789321881345
 30
0.0
 11
5.875
 21
5.75
 31
0.0
  0
LINE
  5
24E
  8
A-LINE-OBJECT
 10
6.021446609406726
 20
12.27144660940672
 30
0.0
 11
7.875
 21
14.125
 31
0.0
  0
LINE
  5
24F
  8
A-LINE-OBJECT
 10
7.875
 20
14.125
 30
0.0
 11
7.875
 21
16.625
 31
0.0
  0
LINE
  5
250
  8
A-LINE-OBJECT
 10
10.0625
 20
13.09375
 30
0.0
 11
10.0625
 21
15.68749999999998
 31
0.0
  0
LINE
  5
251
  8
A-LINE-OBJECT
 10
10.34375
 20
12.8125
 30
0.0
 11
13.25
 21
12.8125
 31
0.0
  0
LINE
  5
252
  8
A-LINE-OBJECT
 10
10.0625
 20
15.68749999999998
 30
0.0
 11
9.7766224550353122
 21
16.75440952255126
 31
0.0
  0
ARC
  5
253
  8
A-LINE-OBJECT
 10
6.375
 20
11.91789321881345
 30
0.0
 40
0.5
 50
135.0
 51
148.77475971351171
  0
ARC
  5
254
  8
A-LINE-OBJECT
 10
8.375
 20
16.625
 30
0.0
 40
0.5
 50
90.0
 51
180.0
  0
ARC
  5
255
  8
A-LINE-OBJECT
 10
9.2936595418907757
 20
16.625
 30
0.0
 40
0.5
 50
14.99999999999998
 51
45.237218620522889
  0
ARC
  5
256
  8
A-LINE-OBJECT
 10
10.34375
 20
13.09375
 30
0.0
 40
0.28125
 50
180.0
 51
270.0
  0
ARC
  5
257
  8
A-LINE-OBJECT
 10
6.375
 20
5.75
 30
0.0
 40
0.5
 50
180.0
 51
220.51920121401781
  0
ARC
  5
258
  8
A-LINE-OBJECT
 10
11.0
 20
5.75
 30
0.0
 40
0.21875
 50
280.2865606114749
 51
259.71343938852499
  0
ARC
  5
259
  8
A-LINE-OBJECT
 10
6.375
 20
5.75
 30
0.0
 40
0.21875
 50
235.2865606114749
 51
214.7134393885249
  0
ARC
  5
25A
  8
A-LINE-OBJECT
 10
6.375
 20
11.875
 30
0.0
 40
0.21875
 50
159.32280407940121
 51
138.74968285645161
  0
ARC
  5
25B
  8
A-LINE-OBJECT
 10
9.3125
 20
16.625
 30
0.0
 40
0.21875
 50
61.699537993149512
 51
41.126416770200031
  0
LINE
  5
261
  8
A-LINE-OBJECT
 10
11.0390625
 20
5.25
 30
0.0
 11
11.0390625
 21
5.534765979469439
 31
0.0
  0
LINE
  5
262
  8
A-LINE-OBJECT
 10
10.9609375
 20
5.25
 30
0.0
 11
10.9609375
 21
5.534765979469439
 31
0.0
  0
LINE
  5
263
  8
A-LINE-OBJECT
 10
11.0390625
 20
5.25
 30
0.0
 11
13.25
 21
5.25
 31
0.0
  0
LINE
  5
264
  8
A-LINE-OBJECT
 10
6.2504279231808946
 20
5.5701852059006951
 30
0.0
 11
6.0501485787735181
 21
5.3699058614933204
 31
0.0
  0
LINE
  5
265
  8
A-LINE-OBJECT
 10
6.1951852059006951
 20
5.6254279231808946
 30
0.0
 11
5.9949058614933204
 21
5.4251485787735181
 31
0.0
  0
ARC
  5
266
  8
A-LINE-OBJECT
 10
6.375
 20
5.75
 30
0.0
 40
0.5
 50
229.4807987859821
 51
270.0
  0
LINE
  5
267
  8
A-LINE-OBJECT
 10
6.1703408595759859
 20
11.952241172575929
 30
0.0
 11
5.9121937255466914
 21
12.107129452993499
 31
0.0
  0
LINE
  5
268
  8
A-LINE-OBJECT
 10
6.2105358404687632
 20
12.019232807397209
 30
0.0
 11
5.9474320136246863
 21
12.17709510350366
 31
0.0
  0
ARC
  5
269
  8
A-LINE-OBJECT
 10
6.375
 20
11.91789321881345
 30
0.0
 40
0.5
 50
157.76090411598261
 51
180.0
  0
LINE
  5
26A
  8
A-LINE-OBJECT
 10
9.4772756737895865
 20
16.768876821716312
 30
0.0
 11
9.6457461084260565
 21
16.980014154176128
 31
0.0
  0
LINE
  5
26B
  8
A-LINE-OBJECT
 10
9.4162083487992714
 20
16.817603584829879
 30
0.0
 11
9.5861190009606521
 21
17.030545884950829
 31
0.0
  0
ARC
  5
26C
  8
A-LINE-OBJECT
 10
9.2936595418907757
 20
16.625
 30
0.0
 40
0.5
 50
54.202737843153358
 51
90.0
  0
ARC
  5
26D
  8
A-LINE-OBJECT
 10
20.125
 20
5.75
 30
0.0
 40
0.5
 50
270.0
 51
310.51920121401781
  0
LINE
  5
26E
  8
A-LINE-OBJECT
 10
20.3048147940993
 20
5.6254279231808946
 30
0.0
 11
20.505094138506671
 21
5.4251485787735181
 31
0.0
  0
LINE
  5
26F
  8
A-LINE-OBJECT
 10
20.249572076819089
 20
5.5701852059006951
 30
0.0
 11
20.44985142122648
 21
5.3699058614933204
 31
0.0
  0
LINE
  5
270
  8
A-LINE-OBJECT
 10
15.4609375
 20
5.25
 30
0.0
 11
13.25
 21
5.25
 31
0.0
  0
LINE
  5
271
  8
A-LINE-OBJECT
 10
15.5390625
 20
5.25
 30
0.0
 11
15.5390625
 21
5.534765979469439
 31
0.0
  0
LINE
  5
272
  8
A-LINE-OBJECT
 10
15.4609375
 20
5.25
 30
0.0
 11
15.4609375
 21
5.534765979469439
 31
0.0
  0
ARC
  5
273
  8
A-LINE-OBJECT
 10
20.125
 20
5.75
 30
0.0
 40
0.21875
 50
325.28656061147478
 51
304.71343938852488
  0
ARC
  5
274
  8
A-LINE-OBJECT
 10
15.5
 20
5.75
 30
0.0
 40
0.21875
 50
280.2865606114749
 51
259.71343938852499
  0
ARC
  5
275
  8
A-LINE-OBJECT
 10
20.125
 20
5.75
 30
0.0
 40
0.5
 50
319.48079878598207
 51
0.0
  0
LINE
  5
276
  8
A-LINE-OBJECT
 10
20.625
 20
11.91789321881345
 30
0.0
 11
20.625
 21
5.75
 31
0.0
  0
LINE
  5
277
  8
A-LINE-OBJECT
 10
20.125
 20
5.25
 30
0.0
 11
15.5390625
 21
5.25
 31
0.0
  0
ARC
  5
278
  8
A-LINE-OBJECT
 10
17.206340458109221
 20
16.625
 30
0.0
 40
0.5
 50
90.0
 51
125.7972621568466
  0
LINE
  5
279
  8
A-LINE-OBJECT
 10
17.08379165120072
 20
16.817603584829879
 30
0.0
 11
16.913880999039339
 21
17.030545884950829
 31
0.0
  0
LINE
  5
27A
  8
A-LINE-OBJECT
 10
17.022724326210412
 20
16.768876821716312
 30
0.0
 11
16.85425389157394
 21
16.980014154176128
 31
0.0
  0
ARC
  5
27B
  8
A-LINE-OBJECT
 10
20.125
 20
11.91789321881345
 30
0.0
 40
0.5
 50
0.0
 51
22.23909588401709
  0
LINE
  5
27C
  8
A-LINE-OBJECT
 10
20.289464159531232
 20
12.019232807397209
 30
0.0
 11
20.552567986375308
 21
12.17709510350366
 31
0.0
  0
LINE
  5
27D
  8
A-LINE-OBJECT
 10
20.32965914042401
 20
11.952241172575929
 30
0.0
 11
20.5878062744533
 21
12.107129452993499
 31
0.0
  0
ARC
  5
27E
  8
A-LINE-OBJECT
 10
17.1875
 20
16.625
 30
0.0
 40
0.21875
 50
138.87358322979989
 51
118.3004620068504
  0
ARC
  5
27F
  8
A-LINE-OBJECT
 10
20.125
 20
11.875
 30
0.0
 40
0.21875
 50
41.250317143548322
 51
20.677195920598741
  0
ARC
  5
280
  8
A-LINE-OBJECT
 10
16.15625
 20
13.09375
 30
0.0
 40
0.28125
 50
270.0
 51
0.0
  0
ARC
  5
281
  8
A-LINE-OBJECT
 10
17.206340458109221
 20
16.625
 30
0.0
 40
0.5
 50
134.7627813794771
 51
165.0
  0
ARC
  5
282
  8
A-LINE-OBJECT
 10
18.125
 20
16.625
 30
0.0
 40
0.5
 50
0.0
 51
90.0
  0
ARC
  5
283
  8
A-LINE-OBJECT
 10
20.125
 20
11.91789321881345
 30
0.0
 40
0.5
 50
31.225240286488241
 51
45.0
  0
LINE
  5
284
  8
A-LINE-OBJECT
 10
16.4375
 20
15.68749999999998
 30
0.0
 11
16.723377544964681
 21
16.75440952255126
 31
0.0
  0
LINE
  5
285
  8
A-LINE-OBJECT
 10
16.15625
 20
12.8125
 30
0.0
 11
13.25
 21
12.8125
 31
0.0
  0
LINE
  5
286
  8
A-LINE-OBJECT
 10
16.4375
 20
13.09375
 30
0.0
 11
16.4375
 21
15.68749999999998
 31
0.0
  0
LINE
  5
287
  8
A-LINE-OBJECT
 10
18.625
 20
14.125
 30
0.0
 11
18.625
 21
16.625
 31
0.0
  0
LINE
  5
288
  8
A-LINE-OBJECT
 10
20.47855339059327
 20
12.27144660940672
 30
0.0
 11
18.625
 21
14.125
 31
0.0
  0
LINE
  5
289
  8
A-LINE-OBJECT
 10
17.206340458109221
 20
17.125
 30
0.0
 11
18.125
 21
17.125
 31
0.0
  0
LINE
  5
28A
  8
A-LINE-CENTER
 10
13.249999999999989
 20
3.625
 30
0.0
 11
13.249999999999989
 21
4.1788682976012312
 31
0.0
  0
LINE
  5
28C
  8
A1-DIMENSIONS
 10
4.4450000000000003
 20
5.75
 30
0.0
 11
5.5
 21
5.75
 31
0.0
  0
SOLID
  5
28E
  8
A1-DIMENSIONS
 10
4.6550000000000002
 20
12.055
 30
0.0
 11
4.594999999999998
 21
12.055
 31
0.0
 12
4.625
 22
11.875
 32
0.0
 13
4.625
 23
11.875
 33
0.0
  0
LINE
  5
28F
  8
A1-DIMENSIONS
 10
4.625
 20
12.055
 30
0.0
 11
4.625
 21
12.084930241996121
 31
0.0
  0
SOLID
  5
290
  8
A1-DIMENSIONS
 10
4.594999999999998
 20
16.445
 30
0.0
 11
4.6550000000000002
 21
16.445
 31
0.0
 12
4.625
 22
16.625
 32
0.0
 13
4.625
 23
16.625
 33
0.0
  0
LINE
  5
291
  8
A1-DIMENSIONS
 10
4.625
 20
16.445
 30
0.0
 11
4.625
 21
15.758127799035311
 31
0.0
  0
LINE
  5
292
  8
A1-DIMENSIONS
 10
4.625
 20
15.75
 30
0.0
 11
4.625
 21
16.0
 31
0.0
  0
LINE
  5
293
  8
A1-DIMENSIONS
 10
4.625
 20
12.875
 30
0.0
 11
4.625
 21
14.312661529100369
 31
0.0
  0
LINE
  5
294
  8
A1-DIMENSIONS
 10
4.625
 20
12.174363179508971
 30
0.0
 11
4.625
 21
12.75
 31
0.0
  0
TEXT
  5
295
  8
A1-DIMENSIONS
 10
4.3960507843495149
 20
14.396938628440379
 30
0.0
 40
0.125
  1
9.50
 51
15.0
  7
LEROY
  0
LINE
  5
296
  8
A1-DIMENSIONS
 10
4.625
 20
14.594923258786039
 30
0.0
 11
4.625
 21
15.625
 31
0.0
  0
LINE
  5
29B
  8
A-LINE-CENTER
 10
13.249999999999989
 20
4.3274557364244384
 30
0.0
 11
13.25
 21
10.221554451002049
 31
0.0
  0
LINE
  5
29C
  8
A-LINE-CENTER
 10
13.25
 20
15.13045616865015
 30
0.0
 11
13.25
 21
18.506451310751508
 31
0.0
  0
LINE
  5
29D
  8
A1-DIMENSIONS
 10
10.0625
 20
19.625
 30
0.0
 11
10.0625
 21
19.091902292973181
 31
0.0
  0
LINE
  5
29F
  8
A1-DIMENSIONS
  6
BYBLOCK
 10
5.875
 20
18.0
 30
0.0
 11
5.875
 21
19.805
 31
0.0
  0
LINE
  5
2A0
  8
A1-DIMENSIONS
  6
BYBLOCK
 10
10.0625
 20
16.437499999999979
 30
0.0
 11
10.0625
 21
18.25
 31
0.0
  0
LINE
  5
2A1
  8
A1-DIMENSIONS
  6
BYBLOCK
 10
6.0549999999999979
 20
19.625
 30
0.0
 11
7.6771092598391792
 21
19.625
 31
0.0
  0
LINE
  5
2A2
  8
A1-DIMENSIONS
  6
BYBLOCK
 10
9.8825000000000003
 20
19.625
 30
0.0
 11
8.2603907401608172
 21
19.625
 31
0.0
  0
SOLID
  5
2A3
  8
A1-DIMENSIONS
  6
BYBLOCK
 10
6.0549999999999979
 20
19.655000000000001
 30
0.0
 11
6.0549999999999979
 21
19.594999999999999
 31
0.0
 12
5.875
 22
19.625
 32
0.0
 13
5.875
 23
19.625
 33
0.0
  0
SOLID
  5
2A4
  8
A1-DIMENSIONS
  6
BYBLOCK
 10
9.8825000000000003
 20
19.655000000000001
 30
0.0
 11
9.8825000000000003
 21
19.594999999999999
 31
0.0
 12
10.0625
 22
19.625
 32
0.0
 13
10.0625
 23
19.625
 33
0.0
  0
TEXT
  5
2A5
  8
A1-DIMENSIONS
  6
BYBLOCK
 10
7.7574404761904763
 20
19.5625
 30
0.0
 40
0.125
  1
8.38
 51
15.0
  7
LEROY
 72
     1
 11
7.96875
 21
19.625
 31
0.0
 73
     2
  0
POINT
  5
2A6
  8
A1-DIMENSIONS
  6
BYBLOCK
 10
5.875
 20
17.875
 30
0.0
  0
POINT
  5
2A7
  8
A1-DIMENSIONS
  6
BYBLOCK
 10
10.0625
 20
16.312499999999979
 30
0.0
  0
POINT
  5
2A8
  8
A1-DIMENSIONS
  6
BYBLOCK
 10
10.0625
 20
19.625
 30
0.0
  0
LINE
  5
2A9
  8
A1-DIMENSIONS
  6
BYBLOCK
 10
9.3125
 20
18.055
 30
0.0
 11
9.3125
 21
19.18
 31
0.0
  0
LINE
  5
2AA
  8
A1-DIMENSIONS
  6
BYBLOCK
 10
17.1875
 20
17.375
 30
0.0
 11
17.1875
 21
17.549950817361871
 31
0.0
  0
LINE
  5
2AB
  8
A1-DIMENSIONS
  6
BYBLOCK
 10
9.4924999999999997
 20
19.0
 30
0.0
 11
11.78315937252027
 21
19.0
 31
0.0
  0
LINE
  5
2AC
  8
A1-DIMENSIONS
  6
BYBLOCK
 10
17.0075
 20
19.0
 30
0.0
 11
12.6153634865409
 21
19.0
 31
0.0
  0
SOLID
  5
2AD
  8
A1-DIMENSIONS
  6
BYBLOCK
 10
9.4924999999999997
 20
19.030000000000001
 30
0.0
 11
9.4924999999999997
 21
18.969999999999999
 31
0.0
 12
9.3125
 22
19.0
 32
0.0
 13
9.3125
 23
19.0
 33
0.0
  0
SOLID
  5
2AE
  8
A1-DIMENSIONS
  6
BYBLOCK
 10
17.0075
 20
19.030000000000001
 30
0.0
 11
17.0075
 21
18.969999999999999
 31
0.0
 12
17.1875
 22
19.0
 32
0.0
 13
17.1875
 23
19.0
 33
0.0
  0
TEXT
  5
2AF
  8
A1-DIMENSIONS
  6
BYBLOCK
 10
11.94191605409787
 20
18.9375
 30
0.0
 40
0.125
  1
15.75
 51
15.0
  7
LEROY
 72
     1
 11
12.221677958859781
 21
19.0
 31
0.0
 73
     2
  0
POINT
  5
2B0
  8
A1-DIMENSIONS
  6
BYBLOCK
 10
9.3125
 20
17.93
 30
0.0
  0
POINT
  5
2B1
  8
A1-DIMENSIONS
  6
BYBLOCK
 10
17.1875
 20
17.25
 30
0.0
  0
POINT
  5
2B2
  8
A1-DIMENSIONS
  6
BYBLOCK
 10
17.1875
 20
19.0
 30
0.0
  0
LINE
  5
2B3
  8
A1-DIMENSIONS
  6
BYBLOCK
 10
10.0625
 20
19.125
 30
0.0
 11
10.0625
 21
19.805
 31
0.0
  0
LINE
  5
2B4
  8
A1-DIMENSIONS
  6
BYBLOCK
 10
10.0625
 20
18.5
 30
0.0
 11
10.0625
 21
18.875
 31
0.0
  0
LINE
  5
2B5
  8
A1-DIMENSIONS
  6
BYBLOCK
 10
17.1875
 20
17.922809031709331
 30
0.0
 11
17.1875
 21
19.18
 31
0.0
  0
TEXT
  5
2B6
  8
A-LINE-OBJECT
 10
13.09154764743556
 20
10.52294223967095
 30
0.0
 40
0.25
  1
C
 51
15.0
  7
LEROY
  0
TEXT
  5
2B7
  8
A-LINE-OBJECT
 10
13.158438713655469
 20
10.37909806780625
 30
0.0
 40
0.25
  1
L
 51
15.0
  7
LEROY
  0
LINE
  5
2B8
  8
A-LINE-CENTER
 10
13.25
 20
10.82889650998635
 30
0.0
 11
13.25
 21
14.16793072451417
 31
0.0
  0
LINE
  5
2B9
  8
A1-DIMENSIONS
  6
BYBLOCK
 10
16.4375
 20
15.8897755630936
 30
0.0
 11
16.437499999999989
 21
18.915521222551519
 31
0.0
  0
LINE
  5
2BA
  8
A1-DIMENSIONS
  6
BYBLOCK
 10
6.0549999999999979
 20
20.249999999999989
 30
0.0
 11
10.799503175473051
 21
20.249999999999989
 31
0.0
  0
LINE
  5
2BB
  8
A1-DIMENSIONS
  6
BYBLOCK
 10
16.2575
 20
20.249999999999989
 30
0.0
 11
11.51299682452694
 21
20.249999999999989
 31
0.0
  0
SOLID
  5
2BC
  8
A1-DIMENSIONS
  6
BYBLOCK
 10
6.0549999999999979
 20
20.280000000000001
 30
0.0
 11
6.0549999999999979
 21
20.219999999999992
 31
0.0
 12
5.875
 22
20.249999999999989
 32
0.0
 13
5.875
 23
20.249999999999989
 33
0.0
  0
SOLID
  5
2BD
  8
A1-DIMENSIONS
  6
BYBLOCK
 10
16.2575
 20
20.280000000000001
 30
0.0
 11
16.2575
 21
20.219999999999992
 31
0.0
 12
16.4375
 22
20.249999999999989
 32
0.0
 13
16.4375
 23
20.249999999999989
 33
0.0
  0
TEXT
  5
2BE
  8
A1-DIMENSIONS
  6
BYBLOCK
 10
10.885416666666661
 20
20.187499999999989
 30
0.0
 40
0.125
  1
21.13
 51
15.0
  7
LEROY
 72
     1
 11
11.15625
 21
20.249999999999989
 31
0.0
 73
     2
  0
POINT
  5
2BF
  8
A1-DIMENSIONS
  6
BYBLOCK
 10
5.875
 20
17.875
 30
0.0
  0
POINT
  5
2C0
  8
A1-DIMENSIONS
  6
BYBLOCK
 10
16.4375
 20
16.312499999999979
 30
0.0
  0
POINT
  5
2C1
  8
A1-DIMENSIONS
  6
BYBLOCK
 10
16.4375
 20
20.249999999999989
 30
0.0
  0
LINE
  5
2C2
  8
A1-DIMENSIONS
 10
10.0625
 20
18.915325254099361
 30
0.0
 11
10.0625
 21
18.463288034582352
 31
0.0
  0
LINE
  5
2C3
  8
A1-DIMENSIONS
 10
10.0625
 20
18.286710995708528
 30
0.0
 11
10.0625
 21
15.875
 31
0.0
  0
LINE
  5
2C4
  8
A1-DIMENSIONS
  6
BYBLOCK
 10
16.4375
 20
19.08346560619152
 30
0.0
 11
16.4375
 21
20.43
 31
0.0
  0
LINE
  5
2C5
  8
A1-DIMENSIONS
 10
8.1316064711971165
 20
16.625
 30
0.0
 11
4.4941858839510891
 21
16.625
 31
0.0
  0
LINE
  5
318
  8
A1-DIMENSIONS
 10
6.375
 20
5.125
 30
0.0
 11
6.375
 21
3.0699999999999981
 31
0.0
  0
LINE
  5
319
  8
A1-DIMENSIONS
 10
20.125
 20
4.625
 30
0.0
 11
20.125
 21
3.069999999999999
 31
0.0
  0
LINE
  5
31A
  8
A1-DIMENSIONS
 10
6.5549999999999979
 20
3.25
 30
0.0
 11
15.89644304681152
 21
3.25
 31
0.0
  0
LINE
  5
31B
  8
A1-DIMENSIONS
 10
19.945
 20
3.25
 30
0.0
 11
16.60355695318848
 21
3.25
 31
0.0
  0
SOLID
  5
31C
  8
A1-DIMENSIONS
 10
6.5549999999999979
 20
3.279999999999998
 30
0.0
 11
6.5549999999999979
 21
3.2200000000000002
 31
0.0
 12
6.375
 22
3.25
 32
0.0
 13
6.375
 23
3.25
 33
0.0
  0
SOLID
  5
31D
  8
A1-DIMENSIONS
 10
19.945
 20
3.279999999999998
 30
0.0
 11
19.945
 21
3.2200000000000002
 31
0.0
 12
20.125
 22
3.25
 32
0.0
 13
20.125
 23
3.25
 33
0.0
  0
TEXT
  5
31E
  8
A1-DIMENSIONS
 10
15.979166666666661
 20
3.1875
 30
0.0
 40
0.125
  1
27.50
 51
15.0
  7
LEROY
 72
     1
 11
16.25
 21
3.25
 31
0.0
 73
     2
  0
LINE
  5
31F
  8
A1-DIMENSIONS
 10
13.25
 20
3.875
 30
0.0
 11
13.25
 21
3.5699999999999981
 31
0.0
  0
LINE
  5
320
  8
A1-DIMENSIONS
 10
20.125
 20
4.625
 30
0.0
 11
20.125
 21
3.569999999999999
 31
0.0
  0
LINE
  5
321
  8
A1-DIMENSIONS
 10
13.429999999999991
 20
3.75
 30
0.0
 11
16.354562699282571
 21
3.75
 31
0.0
  0
LINE
  5
322
  8
A1-DIMENSIONS
 10
19.945
 20
3.75
 30
0.0
 11
17.020437300717418
 21
3.75
 31
0.0
  0
SOLID
  5
323
  8
A1-DIMENSIONS
 10
13.429999999999991
 20
3.7799999999999989
 30
0.0
 11
13.429999999999991
 21
3.7200000000000002
 31
0.0
 12
13.25
 22
3.75
 32
0.0
 13
13.25
 23
3.75
 33
0.0
  0
SOLID
  5
324
  8
A1-DIMENSIONS
 10
19.945
 20
3.7799999999999989
 30
0.0
 11
19.945
 21
3.7200000000000002
 31
0.0
 12
20.125
 22
3.75
 32
0.0
 13
20.125
 23
3.75
 33
0.0
  0
TEXT
  5
325
  8
A1-DIMENSIONS
 10
16.407738095238091
 20
3.6875
 30
0.0
 40
0.125
  1
13.75
 51
15.0
  7
LEROY
 72
     1
 11
16.6875
 21
3.75
 31
0.0
 73
     2
  0
LINE
  5
326
  8
A1-DIMENSIONS
 10
5.875
 20
5.5
 30
0.0
 11
5.875
 21
2.4449999999999981
 31
0.0
  0
LINE
  5
327
  8
A1-DIMENSIONS
 10
20.625
 20
5.5
 30
0.0
 11
20.625
 21
2.4449999999999981
 31
0.0
  0
LINE
  5
328
  8
A1-DIMENSIONS
 10
6.0549999999999979
 20
2.625
 30
0.0
 11
12.89644304681152
 21
2.625
 31
0.0
  0
LINE
  5
329
  8
A1-DIMENSIONS
 10
20.445
 20
2.625
 30
0.0
 11
13.60355695318848
 21
2.625
 31
0.0
  0
SOLID
  5
32A
  8
A1-DIMENSIONS
 10
6.0549999999999979
 20
2.6549999999999989
 30
0.0
 11
6.0549999999999979
 21
2.594999999999998
 31
0.0
 12
5.875
 22
2.625
 32
0.0
 13
5.875
 23
2.625
 33
0.0
  0
SOLID
  5
32B
  8
A1-DIMENSIONS
 10
20.445
 20
2.6549999999999989
 30
0.0
 11
20.445
 21
2.594999999999998
 31
0.0
 12
20.625
 22
2.625
 32
0.0
 13
20.625
 23
2.625
 33
0.0
  0
TEXT
  5
32C
  8
A1-DIMENSIONS
 10
12.979166666666661
 20
2.5625
 30
0.0
 40
0.125
  1
29.50
 51
15.0
  7
LEROY
 72
     1
 11
13.25
 21
2.625
 31
0.0
 73
     2
  0
LINE
  5
32D
  8
A1-DIMENSIONS
 10
5.5
 20
5.25
 30
0.0
 11
1.694999999999999
 21
5.25
 31
0.0
  0
LINE
  5
32E
  8
A1-DIMENSIONS
 10
8.25
 20
17.125
 30
0.0
 11
1.6950000000000001
 21
17.125
 31
0.0
  0
LINE
  5
32F
  8
A1-DIMENSIONS
 10
1.875
 20
5.4299999999999979
 30
0.0
 11
1.875
 21
11.035
 31
0.0
  0
LINE
  5
330
  8
A1-DIMENSIONS
 10
1.875
 20
16.945
 30
0.0
 11
1.875
 21
11.34
 31
0.0
  0
SOLID
  5
331
  8
A1-DIMENSIONS
 10
1.8449999999999991
 20
5.4299999999999979
 30
0.0
 11
1.905
 21
5.4299999999999979
 31
0.0
 12
1.875
 22
5.25
 32
0.0
 13
1.875
 23
5.25
 33
0.0
  0
SOLID
  5
332
  8
A1-DIMENSIONS
 10
1.8449999999999991
 20
16.945
 30
0.0
 11
1.905
 21
16.945
 31
0.0
 12
1.875
 22
17.125
 32
0.0
 13
1.875
 23
17.125
 33
0.0
  0
TEXT
  5
333
  8
A1-DIMENSIONS
 10
1.6041666666666661
 20
11.125
 30
0.0
 40
0.125
  1
23.75
 51
15.0
  7
LEROY
 72
     1
 11
1.875
 21
11.1875
 31
0.0
 73
     2
  0
LINE
  5
334
  8
A1-DIMENSIONS
 10
4.9450000000000003
 20
5.75
 30
0.0
 11
4.4450000000000003
 21
5.75
 31
0.0
  0
LINE
  5
335
  8
A1-DIMENSIONS
 10
6.0625
 20
11.875
 30
0.0
 11
4.4450000000000003
 21
11.875
 31
0.0
  0
LINE
  5
336
  8
A1-DIMENSIONS
 10
4.625
 20
5.9299999999999979
 30
0.0
 11
4.625
 21
7.9725000000000001
 31
0.0
  0
LINE
  5
337
  8
A1-DIMENSIONS
 10
4.625
 20
11.69499999999999
 30
0.0
 11
4.625
 21
8.2774999999999999
 31
0.0
  0
SOLID
  5
338
  8
A1-DIMENSIONS
 10
4.594999999999998
 20
5.9299999999999979
 30
0.0
 11
4.6550000000000002
 21
5.9299999999999979
 31
0.0
 12
4.625
 22
5.75
 32
0.0
 13
4.625
 23
5.75
 33
0.0
  0
SOLID
  5
339
  8
A1-DIMENSIONS
 10
4.594999999999998
 20
11.69499999999999
 30
0.0
 11
4.6550000000000002
 21
11.69499999999999
 31
0.0
 12
4.625
 22
11.875
 32
0.0
 13
4.625
 23
11.875
 33
0.0
  0
TEXT
  5
33A
  8
A1-DIMENSIONS
 10
4.470238095238094
 20
8.0625
 30
0.0
 40
0.125
  1
12.25
 51
15.0
  7
LEROY
 72
     1
 11
4.75
 21
8.125
 31
0.0
 73
     2
  0
LINE
  5
33B
  8
A1-DIMENSIONS
 10
5.625
 20
5.25
 30
0.0
 11
2.569999999999999
 21
5.25
 31
0.0
  0
LINE
  5
33C
  8
A1-DIMENSIONS
 10
9.9375
 20
15.68749999999998
 30
0.0
 11
2.569999999999999
 21
15.68749999999998
 31
0.0
  0
LINE
  5
33D
  8
A1-DIMENSIONS
 10
2.75
 20
5.4299999999999979
 30
0.0
 11
2.75
 21
10.316249999999989
 31
0.0
  0
LINE
  5
33E
  8
A1-DIMENSIONS
 10
2.75
 20
15.507499999999981
 30
0.0
 11
2.75
 21
10.621249999999989
 31
0.0
  0
SOLID
  5
33F
  8
A1-DIMENSIONS
 10
2.719999999999998
 20
5.4299999999999979
 30
0.0
 11
2.7799999999999989
 21
5.4299999999999979
 31
0.0
 12
2.75
 22
5.25
 32
0.0
 13
2.75
 23
5.25
 33
0.0
  0
SOLID
  5
340
  8
A1-DIMENSIONS
 10
2.719999999999998
 20
15.507499999999981
 30
0.0
 11
2.7799999999999989
 21
15.507499999999981
 31
0.0
 12
2.75
 22
15.68749999999998
 32
0.0
 13
2.75
 23
15.68749999999998
 33
0.0
  0
TEXT
  5
341
  8
A1-DIMENSIONS
 10
2.4791666666666661
 20
10.406249999999989
 30
0.0
 40
0.125
  1
20.87
 51
15.0
  7
LEROY
 72
     1
 11
2.75
 21
10.468749999999989
 31
0.0
 73
     2
  0
LINE
  5
342
  8
A1-DIMENSIONS
 10
5.625
 20
5.25
 30
0.0
 11
3.194999999999999
 21
5.25
 31
0.0
  0
LINE
  5
343
  8
A1-DIMENSIONS
 10
10.21875
 20
12.8125
 30
0.0
 11
3.194999999999999
 21
12.8125
 31
0.0
  0
LINE
  5
344
  8
A1-DIMENSIONS
 10
3.375
 20
5.4299999999999979
 30
0.0
 11
3.375
 21
8.8787500000000001
 31
0.0
  0
LINE
  5
345
  8
A1-DIMENSIONS
 10
3.375
 20
12.6325
 30
0.0
 11
3.375
 21
9.1837500000000016
 31
0.0
  0
SOLID
  5
346
  8
A1-DIMENSIONS
 10
3.344999999999998
 20
5.4299999999999979
 30
0.0
 11
3.4049999999999989
 21
5.4299999999999979
 31
0.0
 12
3.375
 22
5.25
 32
0.0
 13
3.375
 23
5.25
 33
0.0
  0
SOLID
  5
347
  8
A1-DIMENSIONS
 10
3.344999999999998
 20
12.6325
 30
0.0
 11
3.4049999999999989
 21
12.6325
 31
0.0
 12
3.375
 22
12.8125
 32
0.0
 13
3.375
 23
12.8125
 33
0.0
  0
TEXT
  5
348
  8
A1-DIMENSIONS
 10
3.0952380952380949
 20
8.96875
 30
0.0
 40
0.125
  1
15.13
 51
15.0
  7
LEROY
 72
     1
 11
3.375
 21
9.03125
 31
0.0
 73
     2
  0
LINE
  5
349
  8
A1-DIMENSIONS
 10
5.75
 20
5.25
 30
0.0
 11
3.8199999999999981
 21
5.25
 31
0.0
  0
LINE
  5
34A
  8
A1-DIMENSIONS
 10
5.75
 20
12.125
 30
0.0
 11
3.8199999999999981
 21
12.125
 31
0.0
  0
LINE
  5
34B
  8
A1-DIMENSIONS
 10
4.0
 20
5.4299999999999979
 30
0.0
 11
4.0
 21
8.5350000000000001
 31
0.0
  0
LINE
  5
34C
  8
A1-DIMENSIONS
 10
4.0
 20
11.945
 30
0.0
 11
4.0
 21
8.8399999999999999
 31
0.0
  0
SOLID
  5
34D
  8
A1-DIMENSIONS
 10
3.9700000000000002
 20
5.4299999999999979
 30
0.0
 11
4.0300000000000002
 21
5.4299999999999979
 31
0.0
 12
4.0
 22
5.25
 32
0.0
 13
4.0
 23
5.25
 33
0.0
  0
SOLID
  5
34E
  8
A1-DIMENSIONS
 10
3.9700000000000002
 20
11.945
 30
0.0
 11
4.0300000000000002
 21
11.945
 31
0.0
 12
4.0
 22
12.125
 32
0.0
 13
4.0
 23
12.125
 33
0.0
  0
TEXT
  5
34F
  8
A1-DIMENSIONS
 10
3.7202380952380949
 20
8.625
 30
0.0
 40
0.125
  1
13.75
 51
15.0
  7
LEROY
 72
     1
 11
4.0
 21
8.6875
 31
0.0
 73
     2
  0
LINE
  5
350
  8
A1-DIMENSIONS
 10
5.875
 20
5.5
 30
0.0
 11
5.875
 21
4.5700000000000003
 31
0.0
  0
LINE
  5
351
  8
A1-DIMENSIONS
 10
6.375
 20
5.375
 30
0.0
 11
6.375
 21
4.5700000000000003
 31
0.0
  0
LINE
  5
352
  8
A1-DIMENSIONS
 10
5.6950000000000003
 20
4.75
 30
0.0
 11
5.5149999999999979
 21
4.75
 31
0.0
  0
LINE
  5
353
  8
A1-DIMENSIONS
 10
6.5549999999999979
 20
4.75
 30
0.0
 11
6.7350000000000003
 21
4.75
 31
0.0
  0
SOLID
  5
354
  8
A1-DIMENSIONS
 10
5.6950000000000003
 20
4.7800000000000002
 30
0.0
 11
5.6950000000000003
 21
4.719999999999998
 31
0.0
 12
5.875
 22
4.75
 32
0.0
 13
5.875
 23
4.75
 33
0.0
  0
SOLID
  5
355
  8
A1-DIMENSIONS
 10
6.5549999999999979
 20
4.7800000000000002
 30
0.0
 11
6.5549999999999979
 21
4.719999999999998
 31
0.0
 12
6.375
 22
4.75
 32
0.0
 13
6.375
 23
4.75
 33
0.0
  0
TEXT
  5
356
  8
A1-DIMENSIONS
 10
6.7941277769078958
 20
4.6875
 30
0.0
 40
0.125
  1
1.00 REF
 51
15.0
  7
LEROY
 72
     1
 11
7.2494849197650391
 21
4.75
 31
0.0
 73
     2
  0
LINE
  5
357
  8
A1-DIMENSIONS
 10
5.75
 20
5.25
 30
0.0
 11
5.0700000000000003
 21
5.25
 31
0.0
  0
LINE
  5
358
  8
A1-DIMENSIONS
 10
6.0
 20
5.75
 30
0.0
 11
5.0700000000000003
 21
5.75
 31
0.0
  0
LINE
  5
359
  8
A1-DIMENSIONS
 10
5.25
 20
5.0700000000000003
 30
0.0
 11
5.25
 21
4.8899999999999979
 31
0.0
  0
LINE
  5
35A
  8
A1-DIMENSIONS
 10
5.25
 20
5.9299999999999979
 30
0.0
 11
5.25
 21
6.1100000000000003
 31
0.0
  0
SOLID
  5
35B
  8
A1-DIMENSIONS
 10
5.219999999999998
 20
5.0700000000000003
 30
0.0
 11
5.2800000000000002
 21
5.0700000000000003
 31
0.0
 12
5.25
 22
5.25
 32
0.0
 13
5.25
 23
5.25
 33
0.0
  0
SOLID
  5
35C
  8
A1-DIMENSIONS
 10
5.219999999999998
 20
5.9299999999999979
 30
0.0
 11
5.2800000000000002
 21
5.9299999999999979
 31
0.0
 12
5.25
 22
5.75
 32
0.0
 13
5.25
 23
5.75
 33
0.0
  0
TEXT
  5
35D
  8
A1-DIMENSIONS
 10
4.7594081626423028
 20
6.2294823671132882
 30
0.0
 40
0.125
  1
1.00 REF
 51
15.0
  7
LEROY
 72
     1
 11
5.2147653054994461
 21
6.2919823671132882
 31
0.0
 73
     2
  0
LINE
  5
35E
  8
A1-DIMENSIONS
 10
11.0
 20
4.625
 30
0.0
 11
11.0
 21
4.0700000000000003
 31
0.0
  0
LINE
  5
35F
  8
A1-DIMENSIONS
 10
15.5
 20
4.8049999999999979
 30
0.0
 11
15.5
 21
4.0700000000000003
 31
0.0
  0
LINE
  5
360
  8
A1-DIMENSIONS
 10
11.18
 20
4.25
 30
0.0
 11
13.836335450315371
 21
4.25
 31
0.0
  0
LINE
  5
361
  8
A1-DIMENSIONS
 10
15.32
 20
4.25
 30
0.0
 11
14.413664549684629
 21
4.25
 31
0.0
  0
SOLID
  5
362
  8
A1-DIMENSIONS
 10
11.18
 20
4.2800000000000002
 30
0.0
 11
11.18
 21
4.219999999999998
 31
0.0
 12
11.0
 22
4.25
 32
0.0
 13
11.0
 23
4.25
 33
0.0
  0
SOLID
  5
363
  8
A1-DIMENSIONS
 10
15.32
 20
4.2800000000000002
 30
0.0
 11
15.32
 21
4.219999999999998
 31
0.0
 12
15.5
 22
4.25
 32
0.0
 13
15.5
 23
4.25
 33
0.0
  0
TEXT
  5
364
  8
A1-DIMENSIONS
 10
13.913690476190469
 20
4.1875
 30
0.0
 40
0.125
  1
9.00
 51
15.0
  7
LEROY
 72
     1
 11
14.125
 21
4.25
 31
0.0
 73
     2
  0
LINE
  5
365
  8
A1-DIMENSIONS
 10
13.25
 20
4.875
 30
0.0
 11
13.25
 21
4.9299999999999979
 31
0.0
  0
LINE
  5
366
  8
A1-DIMENSIONS
 10
15.5
 20
4.875
 30
0.0
 11
15.5
 21
4.9299999999999979
 31
0.0
  0
LINE
  5
367
  8
A1-DIMENSIONS
 10
13.429999999999991
 20
4.75
 30
0.0
 11
14.084954195508409
 21
4.75
 31
0.0
  0
LINE
  5
368
  8
A1-DIMENSIONS
 10
15.32
 20
4.75
 30
0.0
 11
14.66504580449158
 21
4.75
 31
0.0
  0
SOLID
  5
369
  8
A1-DIMENSIONS
 10
13.429999999999991
 20
4.7800000000000002
 30
0.0
 11
13.429999999999991
 21
4.719999999999998
 31
0.0
 12
13.25
 22
4.75
 32
0.0
 13
13.25
 23
4.75
 33
0.0
  0
SOLID
  5
36A
  8
A1-DIMENSIONS
 10
15.32
 20
4.7800000000000002
 30
0.0
 11
15.32
 21
4.719999999999998
 31
0.0
 12
15.5
 22
4.75
 32
0.0
 13
15.5
 23
4.75
 33
0.0
  0
TEXT
  5
36B
  8
A1-DIMENSIONS
 10
14.163690476190469
 20
4.6875
 30
0.0
 40
0.125
  1
4.50
 51
15.0
  7
LEROY
 72
     1
 11
14.375
 21
4.75
 31
0.0
 73
     2
  0
LINE
  5
36C
  8
A1-DIMENSIONS
 10
16.755729925602498
 20
16.87515025083739
 30
0.0
 11
17.041831378867538
 21
17.94289541054178
 31
0.0
  0
ARC
  5
36D
  8
A1-DIMENSIONS
 10
16.4375
 20
15.68749999999998
 30
0.0
 40
2.1549571459401311
 50
65.425572197031755
 51
70.212786098515835
  0
ARC
  5
36E
  8
A1-DIMENSIONS
 10
16.4375
 20
15.68749999999998
 30
0.0
 40
2.1549571459401311
 50
94.787213901485686
 51
99.574427802969723
  0
SOLID
  5
36F
  8
A1-DIMENSIONS
 10
17.158045185359999
 20
17.686592374157449
 30
0.0
 11
17.175981244349341
 21
17.743848795525981
 31
0.0
 12
16.995243950749082
 22
17.76902876180975
 32
0.0
 13
16.995243950749082
 23
17.76902876180975
 33
0.0
  0
SOLID
  5
370
  8
A1-DIMENSIONS
 10
16.256404125508571
 20
17.86491341994558
 30
0.0
 11
16.25890997580364
 21
17.804965770164301
 31
0.0
 12
16.43749999999994
 22
17.842457145940131
 32
0.0
 13
16.43749999999994
 23
17.842457145940131
 33
0.0
  0
TEXT
  5
371
  8
A1-DIMENSIONS
 10
16.534595421211879
 20
17.779580996039531
 30
0.0
 40
0.125
  1
15%%d
 51
15.0
  7
LEROY
 72
     1
 11
16.692333516449981
 21
17.842080996039531
 31
0.0
 73
     2
  0
LINE
  5
372
  8
A1-DIMENSIONS
 10
5.875
 20
17.375
 30
0.0
 11
5.875
 21
21.055
 31
0.0
  0
LINE
  5
373
  8
A1-DIMENSIONS
 10
18.625
 20
16.75
 30
0.0
 11
18.625
 21
21.055
 31
0.0
  0
LINE
  5
374
  8
A1-DIMENSIONS
 10
6.0549999999999979
 20
20.874999999999989
 30
0.0
 11
11.89644304681152
 21
20.874999999999989
 31
0.0
  0
LINE
  5
375
  8
A1-DIMENSIONS
 10
18.445
 20
20.874999999999989
 30
0.0
 11
12.60355695318848
 21
20.874999999999989
 31
0.0
  0
SOLID
  5
376
  8
A1-DIMENSIONS
 10
6.0549999999999979
 20
20.905000000000001
 30
0.0
 11
6.0549999999999979
 21
20.844999999999992
 31
0.0
 12
5.875
 22
20.874999999999989
 32
0.0
 13
5.875
 23
20.874999999999989
 33
0.0
  0
SOLID
  5
377
  8
A1-DIMENSIONS
 10
18.445
 20
20.905000000000001
 30
0.0
 11
18.445
 21
20.844999999999992
 31
0.0
 12
18.625
 22
20.874999999999989
 32
0.0
 13
18.625
 23
20.874999999999989
 33
0.0
  0
TEXT
  5
378
  8
A1-DIMENSIONS
 10
11.979166666666661
 20
20.812499999999989
 30
0.0
 40
0.125
  1
25.50
 51
15.0
  7
LEROY
 72
     1
 11
12.25
 21
20.874999999999989
 31
0.0
 73
     2
  0
ARC
  5
379
  8
A1-DIMENSIONS
 10
5.875
 20
12.125
 30
0.0
 40
2.5530580050353029
 50
49.040400773637749
 51
64.142659273923996
  0
ARC
  5
37A
  8
A1-DIMENSIONS
 10
5.875
 20
12.125
 30
0.0
 40
2.5530580050353029
 50
74.927418862588127
 51
85.959599226362229
  0
SOLID
  5
37B
  8
A1-DIMENSIONS
 10
7.5690499035295522
 20
14.0749457356973
 30
0.0
 11
7.5281454753753909
 21
14.031050089473769
 31
0.0
 12
7.6802846281230623
 22
13.93028462812306
 32
0.0
 13
7.6802846281230623
 23
13.93028462812306
 33
0.0
  0
SOLID
  5
37C
  8
A1-DIMENSIONS
 10
6.0538305676223292
 20
14.64173131947393
 30
0.0
 11
6.05594567820319
 21
14.701694027111509
 31
0.0
 12
5.875
 22
14.6780580050353
 32
0.0
 13
5.875
 23
14.6780580050353
 33
0.0
  0
TEXT
  5
37D
  8
A1-DIMENSIONS
 10
6.6148772359567518
 20
14.455895291231879
 30
0.0
 40
0.125
  1
45%%d
 51
15.0
  7
LEROY
 72
     1
 11
6.7636867597662764
 21
14.518395291231879
 31
0.0
 73
     2
  0
LINE
  5
37E
  8
A1-DIMENSIONS
 10
5.875
 20
17.375
 30
0.0
 11
5.875
 21
17.93
 31
0.0
  0
LINE
  5
37F
  8
A1-DIMENSIONS
 10
7.875
 20
17.25
 30
0.0
 11
7.875
 21
17.93
 31
0.0
  0
LINE
  5
380
  8
A1-DIMENSIONS
 10
6.0549999999999979
 20
17.75
 30
0.0
 11
6.584954195508411
 21
17.75
 31
0.0
  0
LINE
  5
381
  8
A1-DIMENSIONS
 10
7.6950000000000003
 20
17.75
 30
0.0
 11
7.1650458044915872
 21
17.75
 31
0.0
  0
SOLID
  5
382
  8
A1-DIMENSIONS
 10
6.0549999999999979
 20
17.780000000000001
 30
0.0
 11
6.0549999999999979
 21
17.719999999999999
 31
0.0
 12
5.875
 22
17.75
 32
0.0
 13
5.875
 23
17.75
 33
0.0
  0
SOLID
  5
383
  8
A1-DIMENSIONS
 10
7.6950000000000003
 20
17.780000000000001
 30
0.0
 11
7.6950000000000003
 21
17.719999999999999
 31
0.0
 12
7.875
 22
17.75
 32
0.0
 13
7.875
 23
17.75
 33
0.0
  0
TEXT
  5
384
  8
A1-DIMENSIONS
 10
6.6636904761904763
 20
17.6875
 30
0.0
 40
0.125
  1
4.00
 51
15.0
  7
LEROY
 72
     1
 11
6.875
 21
17.75
 31
0.0
 73
     2
  0
LINE
  5
385
  8
A1-DIMENSIONS
 10
9.3125
 20
17.375
 30
0.0
 11
9.3125
 21
18.555
 31
0.0
  0
LINE
  5
386
  8
A1-DIMENSIONS
 10
13.25
 20
17.875
 30
0.0
 11
13.25
 21
18.555
 31
0.0
  0
LINE
  5
387
  8
A1-DIMENSIONS
 10
9.4924999999999997
 20
18.375
 30
0.0
 11
10.99534795992928
 21
18.375
 31
0.0
  0
LINE
  5
388
  8
A1-DIMENSIONS
 10
13.07
 20
18.375
 30
0.0
 11
11.56715204007071
 21
18.375
 31
0.0
  0
SOLID
  5
389
  8
A1-DIMENSIONS
 10
9.4924999999999997
 20
18.405000000000001
 30
0.0
 11
9.4924999999999997
 21
18.344999999999999
 31
0.0
 12
9.3125
 22
18.375
 32
0.0
 13
9.3125
 23
18.375
 33
0.0
  0
SOLID
  5
38A
  8
A1-DIMENSIONS
 10
13.07
 20
18.405000000000001
 30
0.0
 11
13.07
 21
18.344999999999999
 31
0.0
 12
13.25
 22
18.375
 32
0.0
 13
13.25
 23
18.375
 33
0.0
  0
TEXT
  5
38B
  8
A1-DIMENSIONS
 10
11.069940476190469
 20
18.3125
 30
0.0
 40
0.125
  1
7.88
 51
15.0
  7
LEROY
 72
     1
 11
11.28125
 21
18.375
 31
0.0
 73
     2
  0
LINE
  5
38C
  8
A1-DIMENSIONS
 10
10.263380120900321
 20
13.03216879317921
 30
0.0
 11
12.656258661089369
 21
14.86564608505936
 31
0.0
  0
SOLID
  5
38D
  8
A1-DIMENSIONS
 10
10.281626404402781
 20
13.0083554956682
 30
0.0
 11
10.245133837397869
 21
13.055982090690231
 31
0.0
 12
10.12050033583424
 22
12.922691092164481
 32
0.0
 13
10.12050033583424
 23
12.922691092164481
 33
0.0
  0
TEXT
  5
38E
  8
A1-DIMENSIONS
 10
13.43283924538501
 20
14.81953676442158
 30
0.0
 40
0.125
  1
0.563 RAD
 51
15.0
  7
LEROY
 72
     1
 11
13.94772019776596
 21
14.88203676442158
 31
0.0
 73
     2
  0
LINE
  5
38F
  8
A1-DIMENSIONS
 10
20.66420785916651
 20
12.23332266616794
 30
0.0
 11
21.540327145890618
 21
12.674581249360649
 31
0.0
  0
LINE
  5
390
  8
A1-DIMENSIONS
 10
20.699446147244501
 20
12.16335701565777
 30
0.0
 11
21.575565433968631
 21
12.60461559885049
 31
0.0
  0
LINE
  5
391
  8
A1-DIMENSIONS
 10
21.298598038834751
 20
12.754374975943421
 30
0.0
 11
21.217630348598188
 21
12.915136392762751
 31
0.0
  0
LINE
  5
392
  8
A1-DIMENSIONS
 10
21.495771707385849
 20
12.36288649179461
 30
0.0
 11
21.576739397622401
 21
12.20212507497528
 31
0.0
  0
LINE
  5
393
  8
A1-DIMENSIONS
 10
21.576739397622401
 20
12.20212507497528
 30
0.0
 11
21.756739397622411
 21
12.20212507497528
 31
0.0
  0
SOLID
  5
394
  8
A1-DIMENSIONS
 10
21.325391608304638
 20
12.767869590982841
 30
0.0
 11
21.271804469364859
 21
12.740880360904001
 31
0.0
 12
21.379565729071299
 22
12.593613559124099
 32
0.0
 13
21.379565729071299
 23
12.593613559124099
 33
0.0
  0
SOLID
  5
395
  8
A1-DIMENSIONS
 10
21.52256527685574
 20
12.37638110683403
 30
0.0
 11
21.468978137915961
 21
12.349391876755179
 31
0.0
 12
21.414804017149301
 22
12.523647908613929
 32
0.0
 13
21.414804017149301
 23
12.523647908613929
 33
0.0
  0
TEXT
  5
396
  8
A1-DIMENSIONS
 10
21.831644764379181
 20
12.13962507497528
 30
0.0
 40
0.125
  1
0.16 
 51
15.0
  7
LEROY
 72
     1
 11
22.1054542881887
 21
12.20212507497528
 31
0.0
 73
     2
  0
LINE
  5
397
  8
A1-DIMENSIONS
 10
26.25
 20
17.25
 30
0.0
 11
26.25
 21
17.93
 31
0.0
  0
LINE
  5
398
  8
A1-DIMENSIONS
 10
26.625
 20
17.25
 30
0.0
 11
26.625
 21
17.93
 31
0.0
  0
LINE
  5
399
  8
A1-DIMENSIONS
 10
26.07
 20
17.75
 30
0.0
 11
25.890000000000001
 21
17.75
 31
0.0
  0
LINE
  5
39A
  8
A1-DIMENSIONS
 10
26.805
 20
17.75
 30
0.0
 11
26.984999999999999
 21
17.75
 31
0.0
  0
SOLID
  5
39B
  8
A1-DIMENSIONS
 10
26.07
 20
17.780000000000001
 30
0.0
 11
26.07
 21
17.719999999999999
 31
0.0
 12
26.25
 22
17.75
 32
0.0
 13
26.25
 23
17.75
 33
0.0
  0
SOLID
  5
39C
  8
A1-DIMENSIONS
 10
26.805
 20
17.780000000000001
 30
0.0
 11
26.805
 21
17.719999999999999
 31
0.0
 12
26.625
 22
17.75
 32
0.0
 13
26.625
 23
17.75
 33
0.0
  0
TEXT
  5
39D
  8
A1-DIMENSIONS
 10
27.067723619855141
 20
17.6875
 30
0.0
 40
0.125
  1
0.75 REF
 51
15.0
  7
LEROY
 72
     1
 11
27.514152191283721
 21
17.75
 31
0.0
 73
     2
  0
TEXT
  5
3AC
  8
A-LINE-OBJECT
 10
21.72063691893678
 20
2.383934164961063
 30
0.0
 40
0.3375
  1
LC-12, LMF-12, TP-15, TP-16, TP-18
  7
LABEL
  0
TEXT
  5
6C3
  8
A-LINE-OBJECT
 10
21.72063691893678
 20
3.0286267825555209
 30
0.0
 40
0.3375
  1
USED ON MOHAWK MODELS:
  7
LABEL
  0
ENDSEC
  0
EOF
